Chiisana Alice (Kiniro Mosaic) Guitar Tab

Submitted: Oct 06, 2013 by tomorning

5
Average: 5 (2 votes)
Download | Listen
Game: Kiniro Mosaic
Composer(s): Takeshi Nakatsuka
Style: Arrangement, Artificial harmonics, Fingerstyle, Natural harmonics

This song is also called Little Alice, ちいさなアリス

AutoScroll: Slow | Medium | Fast
                                        Chiisana Alice
                                        (Little Alice)
                                  - Guitar Solo arrange -
                               ~ from anime "Kiniro Mosaic" ~


Music by Ruka Kawada (川田瑠夏)
Arranged by to*morning

Standard Tuning

Q=186
                                                                                  N.H.------------/
E |------------------------|--------------0----------|-----7-----7-------------|-----<7>---<7>----------|
B |--0--0--0-----2---------|--4--4--4----------------|--7-----7-----7----------|--<7>---<7>---<7>-------|
G |--2-----------3---------|--1----------------------|--8----------------------|------------------------|
D |------------------------|-------------------------|--9----------------------|------------------------|
A |--2---------------------|--2----------------------|-------------------------|------------------------|
E |------------------------|-------------------------|--7----------------------|------------------------|



                                                                                  A.H.(8va)---------/
|-------------------------|--------------------------|-----10----10------------|-----<10>----<10>--------|
|--3--3--3-----5----------|--7--7--7-----8-----------|--10----10----10---------|-<10>----<10>----<10>----|
|--5-----------6----------|--4-----------------------|-------------------------|-------------------------|
|--0----------------------|--0-----------------------|--10---------------------|-------------------------|
|-------------------------|--------------------------|-------------------------|-------------------------|
|-------------------------|--------------------------|--10---------------------|-------------------------|



|--10-8--7--8--7----------|-----5-----------5-------|--0-----------------0----|--2----||
|-----------------10------|--8-----5--7--8----------|-----------------3-------|--3----||
|-------------------------|-------------------------|--------------0----------|--2----||
|---0---------------------|-------------------------|-----------2-------------|--0----||
|-------------------------|--0----------------------|--------0----------------|-------||
|-------------------------|-------------------------|-------------------------|-------||



|--10-----8-----7------|--5-------------------|--3-----2------0-------|--------0-----0-------|
|---------8-----8------|--------8--------7----|--------3------3-------|--3--------3----------|
|-----------9----------|--------7-----7-------|-----------2-----------|----------------------|
|---7------------------|-----------7----------|--5--------------------|--4-------------------|
|----------------------|--5-------------------|-----------------------|--5-------------------|
|----------------------|----------------------|-----------------------|----------------------|



|--10-----8-----7------|--5-------------------|-----------------------|--7-------------------|
|---------8-----8------|-----------8--7-------|---8----------10-------|--------6-----6-------|
|------------9---------|--------7-----7-------|--------7------7-------|-----------7----------|
|---7------------------|-----------7----------|-----------9-----------|--5-------------------|
|----------------------|--5-------------------|--10-------------------|----------------------|
|----------------------|----------------------|-----------------------|----------------------|


|--5-----------3-------|--5-------------------|--------7-----10-------|--14----------15------|
|--------5-----5-------|--------4-----4-------|--8-----------10-------|----------------------|
|-----------5----------|-----------5----------|--------7------7-------|--------12----12------|
|----------------------|----------------------|--9--------9-----------|-----------11---------|
|--3-------------------|--3-------------------|-----------------------|--13------------------|
|----------------------|----------------------|-----------------------|----------------------|


|----------------------|-----------------------|--12p10--8p7---------|-----------------10----||
|--13------------------|--13----13p12----------|--------------10--8--|--7h8--10-----8--------||
|--------12----12------|--12-----------14--12--|---------------------|-----------9-----------||
|--------14----14------|--14-------------------|---------------------|-----------------------||
|--12h15----15---------|--12-------------------|---------------------|--0--------------------||
|----------------------|-----------------------|---------------------|-----------------------||


|--10-----8-----7-------|--5-----3---------2---|--3-----2-----0-------|--------0-----0-------|
|---------8-----8-------|--------3-----3-------|--------3-----3-------|--3--------3----------|
|------9--9-----9-------|-----2--2-----2-------|--------4-----4-------|----------------------|
|--7--------------------|--0-------------------|-----0----------------|-----4----------------|
|-----------------------|----------------------|----------------------|--5-------------------|
|-----------------------|----------------------|--3-------------------|----------------------|


|--10-----8-----7-------|--5--------3--2-------|--3-----------5-------|--7-------------------||
|---------8-----8-------|--------3-----3-------|--------3-----3-------|--------6-----6-------||
|------9--9-----9-------|-----2--2-----2-------|--------4-----4-------|--------7-----7-------||
|--7--------------------|--0-------------------|----------------------|-----0----------------||
|-----------------------|----------------------|-----5----------------|----------------------||
|-----------------------|----------------------|--3-------------------|--3-------------------||




|--5--5--5------3------|--5--5--5-------------|------7h10--14--15--|--17---------19--|
|--5--5--5-------------|--4--4--4-------------|--7h8---------------|-----------------|
|--5--5--5-------------|--0--0--0-------------|--7-----------------|-----------------|
|----------------------|----------------------|--------------------|-----------------|
|--3======-------------|--3======-------------|--------------------|--16-------------|
|----------------------|----------------------|--------------------|-----------------|


--8===================|=(8)----------0-------|--3-------------------|--2-------------------|
--------5-----5-------|--------5-----5---7---|--------5-----5-------|--------3-----3-------|
--------5-----5-------|--------5-----5-------|-----2-----2----------|-----2-----2----------|
-----5----------------|-----5----------------|--0-------------------|--0-------------------|
--0-------------------|--0-------------------|----------------------|----------------------|
----------------------|----------------------|----------------------|----------------------|


|--0-------------------|-----2-------||
|--------1-----1-------|-----3L-3----||
|-----0--0-----0-------|-----2-------||
|--0-------------------|--0-----0----||
|----------------------|-------------||
|----------------------|-------------||


|--3-----2--3----------|--3-----2--3----------|------------------|
|--------------3-------|--------------3-------|-(triangle,ring)--|
|--4-----0--4--0-------|--4-----0--5--4-------|------------------|
|--0g----0g-0g-0g------|--0g----0g-0g-0g------|------------------|
|----------------------|----------------------|------------------|
|----------------------|----------------------|------------------|



|--5-----4--5--0-------|--5-----4--5--0-------|------------------|
|--2--------3--2-------|--2--------3--2-------|-(triangle,ring)--|
|--------2-------------|--------2-------------|------------------|
|----------------------|----------------------|------------------|
|----------------------|----------------------|------------------|
|----------------------|----------------------|------------------|



|--8-7-5-7p5----|--5----------------|--------10------------|--10--------|------------||
|------------8--|-----8--7--8p7--5--|----------------------|------------|--<10>A.H---||
|---------------|-------------------|--7--7--------7--7----|------7-----|--<7>-N.H---||
|--0------------|--0----------------|--0--0----------------|------------|------------||
|---------------|-------------------|----------------------|------------|------------||
|---------------|-------------------|----------------------|------------|------------||


|--0-----------2-------|--3-------------------|--------------0h2-----|--3-----5-----7h8------|
|--------1-----3-------|-----------1----------|--------1-----3-------|-----------5-----------|
|-----0-----0----------|--------0-----0-------|-----0-----0----------|--------5-----7--------|
|----------------------|-----2----------------|----------------------|-----5-----------------|
|--3-------------------|--3-------------------|--3-------------------|--3--------------------|
|----------------------|----------------------|----------------------|-----------------------|


|--7-------------------|--------------10------|--------------10------|--------10----7-------|
|--------------8-------|-----------7----------|-----------7----------|-----------------7----|
|-----------7----------|--7-----7-------------|--------7-------------|-----------7----------|
|--------7-------------|-----7----------------|-----7----------------|-----7----------------|
|-----9----------------|----------------------|----------------------|----------------------
|--7-------------------|--7-------------------|--7-------------------|--7-------------------



|--0-----------2-------|--3-------------------|--------------0h2-----|--3-----5-----7h8-----|
|--------1-----3-------|-----------1----------|--------1-----3-------|-----------5----------|
|-----0-----0----------|--------0-----0-------|-----0-----0----------|--------5-----7-------|
|----------------------|-----2----------------|----------------------|-----5----------------|
|--3-------------------|--3-------------------|--3-------------------|--3-------------------|
|----------------------|----------------------|----------------------|----------------------|



|----------------------|--3-----------6-------|--10--10--10----------|----------------------||
|--------------3-------|--------3-------------|--8---8---8-----------|--7--7--7-------------||
|--------3--------3----|-----3-----3----------|--7---7---7-----------|--7--7--7-------------||
|-----5-----5----------|----------------------|--0---0---0-----------|--0--0--0-------------||
|--6-------------------|----------------------|----------------------|----------------------||
|----------------------|----------------------|----------------------|----------------------||


|-------------||--10----8-----7-------|--5-------3h5p3-2-----|--3--2--0----|-----------0----------|
|----5--7--8--||--------5-----5-------|--------3-------------|-----3--3----|--3-----3-----3-------|
|-------------||-----5-----5----------|-----4----------4-----|--0----------|-----0----------------|
|-------------||--7-------------------|--0-------------------|-------------|--2-------------------|
|-------------||----------------------|----------------------|-------------|----------------------|
|-------------||----------------------|----------------------|-------------|----------------------|


|--10-----8-----7-------|--5------3h5p3-2------|--3-----------5-------|--7-------------------||
|---------5-----5-------|--------3-------------|-----------3--5-------|-----------7----------||
|------5-----5----------|-----4---------4------|--------4-----4-------|--------7-----7-------||
|--7--------------------|--0-------------------|--5-------------------|-----9----------------||
|-----------------------|----------------------|----------------------|--7-------------------||
|-----------------------|----------------------|----------------------|----------------------||



|--5--5--5-------------|--5--5--5-------------|-----0h2--3--5h7--|--8------7--|
|--5--5--5-------------|--4--4--4-------------|--3---------------|------------|
|--5--5--5-------------|--0--0--0-------------|------------------|--7---------|
|----------------------|----------------------|--2---------------|--6---------|
|--3======-------------|--3======-------------|------------------|--7---------|
|----------------------|----------------------|------------------|------------|


|--0===================|==0---8---------7-----|-----7-----7-------|------------|
|-----8p5--------------|--8------5------------|--5-----5-----5====|==5------7--|
|---------5-----5------|----------------------|--5----------------|--5---------|
|------------5---------|----------------------|--7----------------|--7---------|
|--0===================|--0-------------------|--5----------------|--5---------|
|----------------------|----------------------|-------------------|------------|


|--3===================|==3-------------------|--3--2--3--2--3--2----|--0-------------------|--------|-------||
|-----------0----------|-----------1----------|-----------3----------|-----3-----0--1-------|--3=====|==3----||
|--------0-----0-------|--------2-----2-------|--------2-----2-------|--------2-----2-------|--4=====|==4----||
|-----0----------------|-----0----------------|-----0----------------|-----0----------------|--4=====|--4----||
|----------------------|----------------------|----------------------|----------------------|--------|-------||
|--3-------------------|--3-------------------|--3-------------------|--3-------------------|--3=====|--3----|| fin...
Login or Register to remove this ad.