Ads

Dearly Beloved (Kingdom Hearts) Guitar Tab

Submitted: May 11, 2021 by Omnicide (Last updated: May 11, 2021)

5
Average: 5 (10 votes)
Download | Listen
Game: Kingdom Hearts
Composer(s): Yoko Shimomura
Style: Arrangement, Fingerstyle
Series: Kingdom Hearts

AutoScroll: Slow | Medium | Fast
Dearly Beloved                                  
Kingdom Hearts
Composed by Yoko Shimomura
Arranged by William Geesdorf


Standard Tuning
(Capo 1)


     S S S S S S S S S S S S S S S S    S S S S S S S S S S S S S S S S  
E||----------------------------------|----------------------------------|
B||--------------------------2-----2-|--0-----0-----------------2-----2-|
G||--4-----4---------------0---------|------------------------2---------|
D||----------4-----4-2---0-------0---|------2---4-----4-2---2-------2---|
A||------5-------5-------------------|----0---------0-----0-------0-----|
E||----3-------3-------3-------3-----|------------5---------------------|


  S S S S S S S S S S S S S S S S    S S S S S S S S S S S S S S S S  
------------------2-----2-0-----0-|----------------------------------|
--3-----3-2-----2-----------------|--3-----3-2-----2-0-----0---------|
------2-------2-------2-------2---|------2-------2-------2---2-----2-|
----0-------0-------0-------0-----|----0-------0-------0---------2---|
----------------------------------|----------------------------0-----|
----------------------------------|----------------------------------|


  S S S S S S S S S S S S S S S S    S S S S S S S S S S S S S S S S  
----------------------------------|----------------------------------|
--------------------------2-----2-|--0-----0-----------------2-----2-|
--4-----4---------------0---------|------------------------2---------|
----------4-----4-2---0-------0---|------2---4-----4-2---2-------2---|
------5-------5-------------------|----0---------0-----0-------0-----|
----3-------3-------3-------3-----|------------5---------------------|


  S S S S S S S S S S S S S S S S    S S S S S S S S S S S S S S S S    
------------------2-----2-0-----0-|--------------------------2-----2--||
--3-----3-2-----2-----------------|--3-----3-2-----2------------------||
----------------------------------|------------------4-----4---------*||
------4-------4-------4-------4---|------4-------4-------4-----------*||
----2-------2-------2-------2-----|----2-------2-------2---------4----||
----------------------------------|----------------------------2------||




Duration Legend
---------------
W - whole
H - half
Q - quarter
E - 8th
S - 16th
T - 32nd
X - 64th
. - note dotted
|-n-|  - n-tuplets
Login or Register to remove this ad.

9 comments on Dearly Beloved

So far i can't play at full

5

So far i can't play at full speed but damn this sounds good man

Yep, it's a little beauty.

Yep, it's a little beauty. Tried to make it as easy as possible since most Dearly Beloved tabs that i know are more intricate to play.

And damn you did it well,

And damn you did it well, it's either very high pitched or too many notes... Yea i got you

Not this time around, i

Not this time around, i present to you "Dearly Beloved: Pick-friendly Version" :p

Very nice

5

Very nice

Fantastic

5

Fairly easy and sounds spot on.
I'm having trouble playing the last 2 bars with sustained notes though. What chord are you using?

Hmmm, i will try to explain

Hmmm, i will try to explain:

|-----------------|
|--0-----0--------|
|-----------------|
|------2---4-----4| Index Finger
|----0---------0--|
|------------5----| Middle Finger

|-----------------|
|---------2-----2-| Index                      Ring
|-------2---------| Index (Barre) - Instead of Middle
|-2---2-------2---| Index                      Index
|---0-------0-----| 
|-----------------|

That way, it's easier to go from that to the Bminor shape:

|------------------2-----2-0-----0-|
|--3-----3-2-----2-----------------|
|----------------------------------|
|------4-------4-------4-------4---| Bm chord (lifting the Index finger when playing E-0)
|----2-------2-------2-------2-----|
|----------------------------------|
   
|--------------------------2-----2--||
|--3-----3-2-----2------------------||
|------------------4-----4---------*||
|------4-------4-------4-----------*|| Bm chord and then, F#m chord
|----2-------2-------2---------4----||
|----------------------------2------||

youve been busy lately. nice

youve been busy lately. nice work.

And there's a lot more to

Lol, tnx. There's a lot more to come.