Ads

Riku's Theme (Kingdom Hearts 2) Guitar Tab

Submitted: Feb 18, 2010 by Max_depa

4
Average: 4 (1 vote)
Download | Listen
Game: Kingdom Hearts 2
Composer(s): Yoko Shimomura
Style: Arrangement, Fingerstyle
Series: Kingdom Hearts

AutoScroll: Slow | Medium | Fast
Riku's Theme - Kingdom Hearts II
Arranged by: Max_depa
Composed by: Yoko Shimomura

    Q  Q  Q  Q   Q  Q  Q  Q    Q  Q  Q  Q    Q  Q Q  Q   H   Q  Q   H   Q  E E
|e|------------|------------|-------------|------------|----------|------------|
|B|----1-------|-1-----1--1-|--L----------|------------|----------|------------|
|G|-3--L--1----|-0--1-----1-|--------3--1-|-0--3--L----|-3------3-|-3----------|
|D|-3--------3-|-------3----|-------------|-1--5--1--1-|-5---1----|-1----------|
|A|------------|------------|-------------|----------1-|-L---3--4-|-----1------|
|E|------------|------------|-------------|------------|----------|--------4-3-|

  Q  H   Q   H   Q  Q   Q H.    Q  H   Q   H   Q  Q   Q  H.
|----------|----------|-------|----------|----------|--------|
|----1-----|-1------1-|-L-----|----------|----------|--------|
|----1-----|-1------1-|-L-----|----3-----|-3------3-|-L------|
|-3--L---3-|-----3----|-------|-1--5---1-|-5---1--5-|-L------|
|----------|----------|-------|----------|----------|--------|
|-1--------|----------|-------|----------|----------|--------|

  E E E E E E E E   Q  Q E E E E   Q  Q  E E E E   E E E E E E E E   Q  Q E E E E
|-----1---1-------|--------------|---------------|-----1---1-------|--------------|
|---1---1---1-----|-4--4-----2---|-2-----4---4---|---1---1---1-----|-4--4-----2---|
|---------1---0-1-|-3--3---1---1-|-3--0----3---3-|---------1---0-1-|-3--3---1---1-|
|-3-----------1---|--------------|----1--3-------|-3-----------1---|--------------|
|-3-L-3-L---------|------4-------|-----------4---|-3-L-3-L---------|------4-------|
|-----------------|--------------|---------------|-----------------|--------------|

  Q  Q  Q  Q   Q  Q  E E  Q   Q  Q  Q  Q   E E Q  E E Q
|------------|--------------|------------|--------------|
|-2-----4--4-|----2--2------|-1--1-----2-|-2------1---1-|
|-3--1--3--0-|-0--0----1--3-|-1--0--0--0-|---1-3----0-0-|
|----1-------|-------3------|------------|-3------------|
|------------|-4----------3-|-------4----|-----3--------|
|------------|--------------|------------|--------------|

  Q  H   Q   H   Q  Q   Q H.    Q  H   Q   H   Q  Q   Q  H.
|----------|----------|-------|----------|----------|--------||
|----1-----|-1------1-|-L-----|----------|----------|--------||
|----1-----|-1------1-|-L-----|----3-----|-3------3-|-L-----.||
|-3------3-|-----3----|-------|-1--5---1-|-5---1--5-|-L-----.||
|----------|----------|-------|----------|----------|--------||
|----------|----------|-------|----------|----------|--------||


Duration Legend
---------------
W - whole
H - half
Q - quarter
E - 8th
S - 16th
T - 32nd
X - 64th
. - note dotted
|-n-|  - n-tuplets
L - tied note

Login or Register to remove this ad.