Ads

Lazy Afternoons (Kingdom Hearts 2) Guitar Tab

Submitted: May 01, 2015 by massinelli

5
Average: 5 (9 votes)
Download | Listen
Game: Kingdom Hearts 2
Composer(s): Yoko Shimomura
Style: Arrangement, Fingerstyle
Series: Kingdom Hearts

Click here for a video example.

AutoScroll: Slow | Medium | Fast
Lazy Afternoons  
Kingdom Hearts II 
Transcripted using the Piano Collections Field & Battle version                               
Transcripted by Matheus Massinelli
Video Demonstrarion:
https://youtu.be/b135iXjDNXw
If you like, subscribe !

Andante
               ^            ^                                ^          
     Q    Q    Q    Q       Q    Q    Q    Q       Q    Q    Q    Q     
E||----------------------|----------------------|----------------------|
B||------------0---------|--1-------------------|------------0---------|
G||----------------------|-------0---------0----|----------------------|
D||------------0---------|--2---------2---------|------------0---------|
A||-------2---------2----|----------------------|-------2---------2----|
E||--3-------------------|----------------------|--3-------------------|


  ^                                ^            ^                    
  Q    Q    Q    Q       Q    Q    Q    Q       Q    Q    Q    Q     
----------------------|----------------------|----------------------|
----------------------|------------0---------|--1-------------------|
--2-------------------|----------------------|-------0---------0----|
--2----2---------2----|------------0---------|--2---------2---------|
--3---------3---------|-------2---------2----|----------------------|
----------------------|--3-------------------|----------------------|


            ^            ^                         ^               
  Q    Q    Q    Q       H.           Q       Q    Q    Q    Q     
----------------------|--------------------|----------------------|
------------0---------|---------------0----|--1----3---------0----|
----------------------|--2-----------------|----------------------|
------------0---------|--2-----------------|------------0---------|
-------2---------2----|--3-----------------|----------------------|
--3-------------------|--------------------|-------3--------------|


       ^         ^            ^                      ^               
  Q    Q    Q    Q       Q    Q    Q    Q       Q    Q    Q    Q     
-----------------3----|----------------------|----------------------|
-------3--------------|--3----1--------------|--0-------------------|
--0---------2---------|-----------------2----|-------0--------------|
-------3---------0----|----------------------|-------2---------2----|
----------------------|------------3---------|------------3---------|
----------------------|-------1--------------|-------0--------------|


       ^                                             ^               
  Q    Q    Q    Q       Q    Q    Q    Q       Q    Q    Q    Q     
----------------------|----------------------|----------------------|
-------1----0---------|----------------------|-------0--------------|
--0--------------0----|-------0---------2----|----------------------|
-----------------2----|------------2---------|--2----0----0---------|
----------------------|--3-------------------|-----------------2----|
-------3--------------|----------------------|-------3--------------|


                              ^                      ^               
  Q    Q    Q    Q       Q    Q    Q    Q       Q    Q    Q    Q     
----------------------|----------------------|-----------------0----|
-------1----0---------|-------0--------------|--1----3--------------|
--0--------------0----|-----------------0----|------------0---------|
-------0--------------|--0----0----0---------|----------------------|
----------------------|----------------------|----------------------|
----------------------|-------1--------------|-------1--------------|


       ^                      ^                     ^               
  Q    Q    Q    Q       Q    H        Q       Q    Q    Q    Q     
----------------------|---------------------|----------------------|
-------3--------------|--1----1-------------|-------0--------------|
--0---------0---------|-------0--------0----|--2--------------0----|
-------0--------------|---------------------|-------0----0---------|
-----------------3----|-------3-------------|----------------------|
-------0--------------|---------------------|-------3--------------|


       ^                      ^                                   ^     
  Q    Q    Q    Q       Q    Q    Q    Q       S  S  Q    Q.     Q     
----------------------|----------------------|-------------------------|
--1----0--------------|----------------------|--------------------0----|
-------0---------2----|-------0--------------|-------------------------|
----------------------|-------0----0----4----|--2h-4p-2----0------0----|
------------4---------|--4-------------------|-------------------------|
-------0--------------|-------2--------------|--------------------1----|


                 ^                      ^                            
  Q    Q    Q    Q       Q    Q    Q    Q       Q    Q    Q    Q     
----------------------|----------------------|----------------------|
------------1----3----|-------0--------------|--0----1----3----1----|
----------------------|------------2----1----|----------------------|
-------0--------------|--0--------------0----|----------------------|
--2--------------2----|----------------------|----------------------|
----------------------|-----------------0----|----------------------|


                 ^                      ^                            
  Q    Q    Q    Q       Q    Q    Q    Q       Q    Q    Q    Q     
----------------------|----------------------|----------------------|
--0---------0----1----|------------0----1----|----------------------|
-------2---------0----|-------2--------------|-------2--------------|
----------------------|--2-------------------|--2---------2---------|
-----------------0----|----------------------|----------------------|
----------------------|-----------------3----|-----------------2----|


                                        ^                            
  Q    Q    Q    Q       Q    Q    Q    Q       Q    Q    Q    Q     
----------------------|----------------------|----------------------|
-------0----1----0----|-----------------0----|----------------------|
--2-------------------|--2----0----2----0----|-----------------0----|
--2----2--------------|-----------------2----|-------2---------1----|
----------------------|----------------------|--2---------2---------|
----------------------|----------------------|----------------------|


  Q    Q    Q    Q       Q    Q    Q    Q       Q    Q    Q    E   E    
--0----2----3---------|-------0---------2----|-------3---------5p--3h--|
--0----4----0----0----|------------0---------|-------------------------|
----------------------|----------------------|--2---------2------------|
-----------------0----|----------------------|-------------------------|
----------------------|--2-------------------|-----------------3-------|
----------------------|----------------------|-------------------------|


  E   E  Q    Q    Q       Q    Q    E  E  Q       Q    E   E   Q    Q     
--5h--7--0---------0----|-------0----2--3--5----|--3----2h--3p--2---------|
--------------1---------|--1--------------------|-------------------------|
---------0--------------|-----------------------|--------------------2----|
------------------------|------------------0----|-------1-----------------|
------------------------|-----------------------|-------------------------|
------------------------|-----------------------|-------------------------|


  ^                                                                   
  Q    Q    Q    Q       Q    Q    Q    Q       Q    Q    E  E  Q     
----------------------|-------0----2----3----|--2----0-------0--5----|
--0-------------------|-------0----4----0----|--0---------4----------|
--0---------0---------|--0-------------------|-----------------------|
-------2---------2----|--1-------------------|--0--------------------|
----------------------|----------------------|------------------4----|
--0-------------------|----------------------|-----------------------|


  Q    Q    Q    Q       Q    Q    Q    Q       Q    Q    Q    Q     
--3----2----0----7----|--3----0--------------|-----------------5----|
----------------------|-----------------1----|----------------------|
--2-------------------|-------0--------------|--0---------0---------|
----------------------|------------2---------|-------2---------0----|
-----------------3----|----------------------|----------------------|
----------------------|----------------------|----------------------|


  Q    Q    Q    Q       Q    Q    Q    E   E      E  Q.     Q    Q     
--2-------------------|-------------------------|----------------------|
-------3---------3----|------------3----1p--0h--|-----0----------------|
-------2--------------|--2----------------------|--2--------------0----|
------------4---------|-------4-----------------|------------0---------|
----------------------|-------------------------|----------------------|
----------------------|-----------------3-------|----------------------|


                                   ^            ^                    
  Q    Q    Q    Q       Q    Q    Q    Q       Q    Q    Q    Q     
----------------------|----------------------|----------------------|
--1-------------------|------------0---------|----------------------|
-------0---------0----|----------------------|--2-------------------|
--2---------2---------|------------0---------|--2----2---------2----|
----------------------|-------2---------2----|--3---------3---------|
----------------------|--3-------------------|----------------------|


            ^            ^                                ^          
  Q    Q    Q    Q       Q    Q    Q    Q       Q    Q    Q    Q     
----------------------|----------------------|----------------------|
------------0---------|--1-------------------|------------0---------|
----------------------|-------0---------0----|----------------------|
------------0---------|--2---------2---------|------------0---------|
-------2---------2----|----------------------|-------2---------2----|
--3-------------------|----------------------|--3-------------------|


  ^        ^          
  H        H          
--------------------||
-----------0--------||
--2--------2--------||
--2-----------------||
--3-----------------||
-----------3--------||




Duration Legend
---------------
W - whole
H - half
Q - quarter
E - 8th
S - 16th
T - 32nd
X - 64th
. - note dotted
|-n-|  - n-tuplets


Tablature Legend
----------------
L - tied note
x - dead note
g - grace note
(n) - ghost note
> - accentuded note
NH - natural harmonic
AH - artificial harmonic
TH - tapped harmonic
SH - semi harmonic
PH - pitch harmonic
h - hammer on
p - pull off
b - bend
br - bendRelease
pb - preBend
pbr - preBendRelease
brb - bendReleaseBend
\n/ - tremolo bar dip
\n - tremolo bar dive
-/n - tremolo bar Release up
/n\ - tremolo bar inverted dip
/n - tremolo bar return
-\n - tremolo bar Release down
S - shift slide
s - legato slide
/ -  slide into from below or out of upwards
\ -  slide into from above or out of downwards
~ - vibrato
W - wide vibrato
tr - trill
TP - tremolo picking
T - tapping
S - slap
P - pop
< - fade in
^ - brush up
v - brush down
Login or Register to remove this ad.