Login or Register to remove this ad.

Dearly Beloved & Reprise (Kingdom Hearts 2) Guitar Tab

Submitted: Sep 21, 2011 by diralark

4.826085
Average: 4.8 (23 votes)
Download | Listen
Game: Kingdom Hearts 2
Composer(s): Yoko Shimomura
Style: Arrangement, Fingerstyle
Series: Kingdom Hearts

AutoScroll: Slow | Medium | Fast
                   Dearly Beloved~Reprise (MIX)    from Kingdom Hearts II
     
    Music by Yoko Shimomura  >> piano arr. by Lennon Barbosa >> Guitar solo by Diralark

Nylon Guitar, Tempo=58, let ring
                                                        II                     
      ^                                    ^                        ^          
      E  E  E  E  Q    Q       E  E  E  E  Q    Q       E  E  E  E  Q    Q     
E||---------------0---------|--------------0---------|--------------2---------|
B||---0---------------------|--0----------------2----|--3-----2----------5----|
G||*-------------------6----|--2-----2---------------|--2-----2-----4---------|
D||*--4-----4---------------|--2--2--4--2------------|-----4-----4------------|
A||---5--5-----5--7---------|--0-----------4---------|--2---------------------|
D||---5---------------------|------------------------|------------------------|


  --                                                                                                
                           ^                                    ^                        ^          
  E  E  E  E  Q    Q       E  E  E  E  Q.     E     E  E  E  E  Q.     E     E  E  E  E  Q.     E   
------------------------|--------------0---------|--------------0---------|--------------2------0--|
--3-----2---------------|--0---------------------|--0------------------2--|--3-----2---------------|
--2-----2-----4----2----|---------------------6--|--2-----2---------------|------------------------|
-----4-----4------------|--4-----4---------------|--2--2--4--2------------|--------0-----4---------|
--2---------------------|--5--5-----5--7---------|--0-----------4---------|-----0-----0------------|
------------------------|--5---------------------|------------------------|--0---------------------|


                                                                                      II         
                                                 ^                               ^               
  E  E  E  E  E  Q.        Q       E  S S E  S S E  S S E.  S    E  S S E  S  S  E  S S  E.  S   
------------------------|-------|----------------0------------|------------------0--------------|
--3-----2-----0---------|-------|--0----0---------------------|--0----0------------------2---2h-|
-----------------2------|--L----|-----------------------6-----|---------------------------------|
--------0-----4---------|-------|---------4----4----0---------|-----2---4--2h-4p-2----2---------|
-----0-----0------------|-------|-----5------5---7----7-----7-|--0---------------4--4-----------|
--0---------------------|-------|--5--------------------------|---------------------------------|


                                                                                        I        
                                                                                   ^             
                       |--3--|                                                                   
  E  S S E  S S E  S S T  T  T E  S    E  S S E  S S E  S S E.  S    E  S S E  S S E  S S E.  S  
----------------2----2-0h-2p-0-L--0-|-----------------------------|----------------0------------|
--3----3-2----2---------------------|--3----3-2----2------0-------|--0----0---------------------|
------------------------------------|----------------4------2-----|-----------------------6-----|
---------0------4-------------------|---------0---------4-------0-|---------4----4----0---------|
-----0------0------0----------------|-----0------0----------------|-----5------5---7----7-----7-|
--0---------------------------------|--0--------------------------|--5--------------------------|


                       I                                                                           
                  ^                                                                                
                                                        |--3--|                                    
  E  S S E  S  S  E  S S E.  S     E  S S E  S S E  S S T  T  T E  S    E  S S E  S S E  S S Q     
------------------0-------------|----------------2----2-0h-2p-0-L--0-|-----------------------2----|
--0----0-----------------2---2h-|--3----3-2----2---------------------|--3----3-2----2------0------|
--------------------------------|------------------------------------|----------------4------2----|
-----2---4--2h-4p-2----2--------|---------0------4-------------------|---------0---------4--------|
--0---------------4--4----------|-----0------0------0----------------|-----0------0---------------|
--------------------------------|--0---------------------------------|--0-------------------------|


                               II       --          -]                                    
              ^                         ^                         ^                       
  H           E  E  E  E  Q    E  E     E  E  E  E  Q    E  E     E  E  E  E  Q    E  E   
--L--------|-------------------------|--------2-------------0--|--2----------------3--5--|
-----------|--0-----------0----2-----|--------------2----------|-------------------------|
--L--------|--------0-------------2--|--4-----2----------------|-------------------------|
-----------|-----0-----0-------------|-----2-----2-------2-----|--------0-----4----------|
-----------|-------------------------|--0----------------------|-----0-----0-------------|
-----------|--5----------------------|-------------------------|--0----------------------|


                                             II       --          -]           
                            ^                         ^                        
  E  E  E  E  Q    E  E     E  E  E  E  Q    E  E     E  E  E  E  E  E  E  E   
--2--0--2----------------|-------------------------|--------2--------------0--|
-------------------------|--0-----------0----2-----|--------------2-----------|
-------------------4--2--|--------0-------------2--|--4-----2-----------------|
--------0-----4----------|-----0-----0-------------|-----2-----2--------2-----|
-----0-----0-------------|-------------------------|--0--------------0--------|
--0----------------------|--5----------------------|--------------------------|


  II                         VII                            Tempo 50                    
  ^                          ^                              ^                     ^          
  E  E  E  E  E  E  E  E     E   E  E  E  E  E  E   E       E            E  E  E  Q    Q     
-----------------------2--|--7--------------------------||------------------------0---------|
--3--2--------------------|-----------------------------||--0-------------------------------|
--4-----4-----4-----------|------------------7---------*||-----------------------------6----|
--4--------4--------4-----|---------7-----9--------11--*||--4---------------4---------------|
--2--------------2--------|------9-----9--------9-------||---------------5-----5--7---------|
--------------------------|--9--------------------------||--5-------------------------------|


  ^                             ^              
  E  E  E  E  Q    Q       Q    H.             
--------------0---------|-------7------------||
--0----------------2----|-------7------------||
--2-----2---------------|-------9------------||
-----2--4--2------------|-------9------------||
--0-----------4---------|--------------------||
------------------------|--------------------||

Legend
---------------
H - half
Q - quarter
E - 8th
S - 16th
T - 32nd
. - note dotted
|-n-|  - n-tuplets
L - tied note
h - hammer on
p - pull off
^ - brush up
Login or Register to remove this ad.

10 comments on Dearly Beloved & Reprise

i love you <3

5

i love you <3

another great diralark tab.

5

another great diralark tab. :3

Made me feel 14 again. Heh.

5

Made me feel 14 again.

Heh.

nice

5

great job =D I like it

Thanks guys :) Btw I tabbed

Thanks guys :)
Btw I tabbed this tune coz I love the last Kylelandrydid performance : http://www.youtube.com/watch?v=Cg-EzLwC83A&feature=channel_video_title

Awesome as always, sir

5

Awesome as always, sir Diralark. Thank you for sharing such an awesome arrangement!

5 stars...great job !!!

5

5 stars...great job !!!

:)

5

Nice version of "dearly love"

Yes. Just yes.

5

Simply a wonderful, stunning tab :)

Here's a recording of me

5

Here's a recording of me playing this song:
https://www.youtube.com/watch?v=THJPh6abUMg&index=23&list=PL8TOuw2BIIzHd...