Asteroid Attack (Kingdom Hearts 2) Bass/Guitar Tab

Submitted: May 31, 2017 by Strings805

5
Average: 5 (1 vote)
Download | Listen
Game: Kingdom Hearts 2
Composer(s): Yoko Shimomura
Style: 2 or more instruments, Arrangement
Series: Kingdom Hearts

AutoScroll: Slow | Medium | Fast
Asteroid Attack Tab

Lead Guitar

E  :-----------------------|-----------------------|-----------------------|
B  :-----------------------|-----------------------|-----------------------|
G  :-----------------------|------------9----------|7----------------------|
D  :7----------------------|-----------------------|-----------------------|
A  :-----------------------|-----------------------|-----------------------|
D  :-----------------------|-----------------------|-----------------------|

E  :-----------------------|-----------------------|
B  :------------8----------|10---------------------|
G  :-----------------------|-----------------------|
D  :-----------------------|-----------------------|
A  :-----------------------|-----------------------|
D  :-----------------------|-----------------------|

E  :8----------------------|-----------------------|-----------------------|
B  :-----------------------|8----------------------|7----------------------|
G  :-----------------------|-----------------------|-----------------------|
D  :-----------------------|-----------------------|-----------------------|
A  :-----------------------|-----------------------|-----------------------|
D  :-----------------------|-----------------------|-----------------------|

This repeats except for the last three notes. When the above section comes back up, it changes to...

E  :8----------------------|12----------------------|
B  :-----------------------|------------------------|
G  :-----------------------|------------------------|
D  :-----------------------|------------------------|
A  :-----------------------|------------------------|
D  :-----------------------|------------------------|

E  :10---------------------|------------------------|
B  :-----------------------|10----------------------|
G  :-----------------------|------------------------|
D  :-----------------------|------------------------|
A  :-----------------------|------------------------|
D  :-----------------------|------------------------|

E  :-----------------------|------------12----------|
B  :8----------------------|13----------------------|
G  :-----------------------|------------------------|
D  :-----------------------|------------------------|
A  :-----------------------|------------------------|
D  :-----------------------|------------------------|

E  :13---------------------|------------------------|
B  :-----------------------|13----------------------|
G  :-----------------------|------------------------|
D  :-----------------------|------------------------|
A  :-----------------------|------------------------|
D  :-----------------------|------------------------|

E  :-----------------------|15----------------------|13---------------------|
B  :11---------------------|------------------------|-----------------------|
G  :-----------------------|------------------------|-----------------------|
D  :-----------------------|------------------------|-----------------------|
A  :-----------------------|------------------------|-----------------------|
D  :-----------------------|------------------------|-----------------------|

Congrats! You’ve made it to another world! 

I use different positions in my video of this, but that’s
only because I had to plan for octaves when recording it. These notes are all right ;)

============================================================================

Rhythm Guitar

E  :-----------------------|-----------------------|-----------------------|
B  :-----------------------|-----------------------|-----------------------|
G  :-----------------------|-----------------------|-----------------------|
D  :-----------------------|-----------------------|-----------------------|
A  :-----------------------|-----------------------|-----------------------|
D  :0-0-0-0-0-0-0-0-0-0-0-0|0-0-0-0-0-0-0-0-0-0-0-0|0-0-0-0-0-0-0-0-0-0-0-0|

This part plays as triplets for a long time. Just hold steady on guitar or bass on the low D until the 2nd part.

E  :------------------------|------------------------|
B  :------------------------|------------------------|
G  :------------------------|------------------------|
D  :------------------------|------------------------|
A  :-1-1-1-1-1-1-1-1-1-1-1-1|-1-1-1-1-1-1-1-1-1-1-1-1|
D  :------------------------|------------------------|

E  :------------------------|------------------------|
B  :------------------------|------------------------|
G  :------------------------|------------------------|
D  :------------------------|------------------------|
A  :-3-3-3-3-3-3-3-3-3-3-3-3|-3-3-3-3-3-3-3-3-3-3-3-3|
D  :------------------------|------------------------|

E  :------------------------|------------------------|
B  :------------------------|------------------------|
G  :------------------------|------------------------|
D  :------------------------|------------------------|
A  :-4-4-4-4-4-4-4-4-4-4-4-4|-4-4-4-4-4-4-4-4-4-4-4-4|
D  :------------------------|------------------------|

E  :------------------------|------------------------|
B  :------------------------|------------------------|
G  :------------------------|------------------------|
D  :------------------------|------------------------|
A  :------------------------|------------------------|
D  :-1-1-1-1-1-1-1-1-1-1-1-1|-1-1-1-1-1-1-1-1-1-1-1-1|

E  :------------------------|------------------------|
B  :------------------------|------------------------|
G  :------------------------|------------------------|
D  :------------------------|------------------------|
A  :------------------------|------------------------|
D  :-3-3-3-3-3-3-3-3-3-3-3-3|-3-3-3-3-3-3-3-3-3-3-3-3|

============================================================================

Bass

Follow the instructions from Rhythm Guitar. This is an endurance match, stretch before playing haha

G  :-----------------------|-----------------------|-----------------------|
D  :-----------------------|-----------------------|-----------------------|
A  :-----------------------|-----------------------|-----------------------|
D  :0-0-0-0-0-0-0-0-0-0-0-0|0-0-0-0-0-0-0-0-0-0-0-0|0-0-0-0-0-0-0-0-0-0-0-0|

G  :------------------------|------------------------|
D  :------------------------|------------------------|
A  :-1-1-1-1-1-1-1-1-1-1-1-1|-1-1-1-1-1-1-1-1-1-1-1-1|
D  :------------------------|------------------------|

G  :------------------------|------------------------|
D  :------------------------|------------------------|
A  :-3-3-3-3-3-3-3-3-3-3-3-3|-3-3-3-3-3-3-3-3-3-3-3-3|
D  :------------------------|------------------------|

G  :------------------------|------------------------|
D  :------------------------|------------------------|
A  :-4-4-4-4-4-4-4-4-4-4-4-4|-4-4-4-4-4-4-4-4-4-4-4-4|
D  :------------------------|------------------------|

G  :------------------------|------------------------|
D  :------------------------|------------------------|
A  :------------------------|------------------------|
D  :-1-1-1-1-1-1-1-1-1-1-1-1|-1-1-1-1-1-1-1-1-1-1-1-1|

G  :------------------------|------------------------|
D  :------------------------|------------------------|
A  :------------------------|------------------------|
D  :-3-3-3-3-3-3-3-3-3-3-3-3|-3-3-3-3-3-3-3-3-3-3-3-3|
Login or Register to remove this ad.