Ads

Slum No. 5 (The King of Fighters '94) Guitar Tab

Submitted: Jan 06, 2012 by finalthrash

0
Download | Listen
Game: The King of Fighters '94
Composer(s): SNK Sound Team
Style: Transcription

AutoScroll: Slow | Medium | Fast
The King of Fighters '94	SLUM No. 5
SNK Sound Team
Tabbed by finalthrash
1/4/12

E	8--9-(10)(11)(12)(13)----
B	----------------------9--
G	-------------------------
D	-------------------------
A	-------------------------
E	-------------------------

E	-------------------------
B	9------------9-----------
G	9------------9-----------
D	---3------------3--------
A	--5-5-3-4-5----5-5-3-5---
E	-------------------------

E	------------------------------------------------------------------------------------------------
B	---------------------------9--------------------9--------------------------------------------9--
G	10-9(10)-10-7(10)-10-9(12)-9--------------------9----------------10-9(10)-10-7-(10)-10-9(12)-9--
D	------------------------------8-78-8-58-8-7(10)---(10)(11)85-8----------------------------------
A	------------------------------------------------------------7-7---------------------------------
E	------------------------------------------------------------------------------------------------

E	-------------------------------------------------------------------------------------------------
B	7------------7----------6------------6----------5------------5----------3------------3-----------
G	7--5---------7--5-------6--4---------6--4-------5--3---------5--3-------3--1---------3--1--------
D	--7-7-5-6-7----7-7-5-7----6-6-4-5-6----6-6-4-6----5-5-3-4-5----5-5-3-5----3-3-1-2-3----3-3-1-3---
A	-------------------------------------------------------------------------------------------------
E	-------------------------------------------------------------------------------------------------
Login or Register to remove this ad.