Ads

Houkago (Kimi ni Todoke) Guitar Tab

Submitted: Jun 02, 2013 by diralark

5
Average: 5 (6 votes)
Download | Listen
Game: Kimi ni Todoke
Composer(s): Chara, Yukari Katsuki, Hideharu Mori
Style: Arrangement, Fingerstyle

AutoScroll: Slow | Medium | Fast
                             Houkago - Kimi ni Todoke (shojo anime)

       Music by S.E.N.S. Project >> piano arr. by Sperion >> guitar arr. by Diralark

Guitar (easier with Capo 4), let ring, tempo around 80

     T:80 accel.------------T:84              rall.------------T:76      T:84                                            ^                                  
     Q    Q    Q       Q     Q     E  E     Q    E  E  E  E     Q    Q    E  E     Q    Q    Q     
E||------------0----|--------------------|-------------------|------------------|------------0----|
B||--3--------------|--3-----1-----0-----|-------------0-----|------------------|-----------------|
G||-------0---------|-----------------2--|--0-------2-----0--|------------------|--0--------------|
D||-----------------|--0----(2)----------|--2----------0-----|--2---------2--4--|-----------------|
A||--3--------------|--------------------|-------2-----------|--4----L----------|--3----L---------|
E||-----------------|--------------------|--0----------------|------------------|-----------------|
    [3/4]

                    rall.------------T:76           T:84
                                      ^                                                  
  Q    Q    Q       Q    Q    Q       H.              Q    Q    E  E     Q    Q    Q     
-----------------|--0---------2----|---------------|------------------|-----------------|
--3---------0----|--0--------------|--3------------|-------3-------0--|-------0----1----|
-----------------|-----------------|--2------------|--2---------------|--2--------------|
-----------------|-----------------|--0------------|--2---------------|--0--------------|
--2----L---------|--3----L---------|---------------|--3---------3-----|------------0----|
-----------------|-----------------|---------------|------------------|-----------------|


               rall.---------T:78    T:84               rall.-------------T:78                     
                                       ^                                                   
  Q    Q    E  E     Q    Q    Q       Q    Q    Q       Q    Q    Q       Q    Q    Q     
-------0----------|-----------------|-----------------|-----------------|-----------------|
--3------------3--|------------0----|-------1----0----|-------0---------|-----------------|
------------------|--0----2---------|--0--------------|--2---------2----|--0---------0----|
------------0-----|-----------------|--2--------------|--4--------------|--0----0---------|
--2---------------|--2--------------|--0--------------|------------3----|--2--------------|
------------------|-----------------|-----------------|-----------------|--3--------------|


        rall.---------------T:84                                 rall.-----------------
                      ^                                          ^                  
  Q    E  E  E  E     E  E  E  E  E  E     E  E  E   E  E  E     E  E  E  E  E  E   
-------------------|-----------------0--|---------------------|--------------------|
-------------0--1--|--3-----------------|--3-----1------0-----|--------0-----------|
-------0--2--------|--0--0--------0-----|--2---------------2--|--0--2-----0-----0--|
--0----------------|-----------2--------|--0-----0h--2--4-----|--------2-----4-----|
--2----------------|--3-----3-----------|-----0---------------|--------------------|
-------------------|--------------------|---------------------|--0-----------------|


-----T:76  T:84
  ^                                        ^                    ^                  
  Q    Q    E  E     E  E  E   E  E  E     E  E  E  E  E  E     E  E  E  E  E  E   
------------------|------------------0--|-----------------2--|--0-----------------|
---------------0--|---------------------|--3-----------0-----|--0-----------3--0--|
------------------|--2------------0-----|--------------------|-----0--------0-----|
--2---------2-----|-----2---------------|-----4-----0--------|-----------0--------|
--4---------------|--0-----0h--3--------|--2-----2-----------|--3-----3-----------|
-------5----------|---------------------|--------------------|--------------------|


rall.-------T:80     T:84
          ^            ^                                               ^             
    E  E  Q    Q       E  E  E  E  E  E     E  E  E  E  E  E     E  E  E  E   E  E   
|-------------------|--------------------|--------------------|--------0------------|
|-------------------|--------3--------0--|--------0-----1-----|--3---------------3--|
|*--2-----0----2----|--2--0--0--------0--|--2-----0-----2-----|---------------------|
|*--0-----2---------|--2-----------0-----|--0-----------0--2--|-----0-----0h--4-----|
|------0--3---------|--3-----0--3--------|-----0--2--3--------|--2-----2------------|
|-------------------|--------------------|--------------------|---------------------|


        II    -]      III                                        
                      ^                     ^                    
  E  E  E  E  Q       E   E  E  E  E  E     E  E   E   E  E  E   
--0-----2-----3----|--5---7--3--5-----3--|--3--5---2h--3--0--2--|
-------------------|--5------------7-----|--5-------------------|
--0-----2----------|--5------------------|--------(2)-----------|
--2-----2--4-------|---------------------|--0-------------------|
-----2-------------|--3---------3--------|----------------------|
-------------------|---------------------|----------------------|


                         1._________________                                                                       
  ^ rall.--------------------T:86                                                                                           
  E     E  E  E   E  E     Q    Q    Q       E  E  E  E  E  E     E  E  E  E  E  E   
--3---------------------|-------7----5----|--0--------2--3-----|-----------2--3-----|
--0---------------------|-----------------|--1-----------------|--3-----------------|
--0--------0------------|--0--------------|-----0-----0-----0--|-----0-----0-----0--|
--------0------------0--|-----------------|--2-----2-----------|--0-----0-----0-----|
--------------0h--2-----|-----------------|--3-----------------|--2-----------------|
--3---------------------|-----------------|--------------------|--------------------|


                       T:82                 T:86
  E  E  E  E  E  E     E  E  E  E  E  E     E  E  E  E  E  E     E  E  E  E  E  E   
-----------2--3-----|--------------------|--0--------2--3-----|-----------3--5--7--|
--1-----------------|--0-----1-----3-----|--1-----------------|--3-----------------|
--2--0-----0-----0--|--0-----2--------0--|-----0-----0-----0--|-----0-----0--------|
--2-----2-----------|-----0-----2--------|--2-----2-----------|--0-----0-----0-----|
--0-----------------|--------0-----2-----|--3-----------------|--2-----------------|
--------------------|--------------------|--------------------|--------------------|


  V                     --    III       -]                                            
  ^                           ^                                                       
  E   E  E  E  E  E     E  E  E   E  E  E     E  E  E  E  E  E     E  E  E  E  E  E   
--7p--5-----5-----5--|--------7---5--3-----|--0--------2--3-----|-----------2--3-----|
--5------8-----7-----|--8---------------6--|--1--------1--1-----|--3--------0--0-----|
--5------5-----------|---------------------|-----0-----0-----0--|-----0-----0-----0--|
---------------0-----|-----0--3------------|--2-----2-----------|--0-----0-----0-----|
--0------------------|---------------0-----|--3-----------------|--2-----------------|
---------------------|--7------------------|--------------------|--------------------|


                      T:82                T:86
  E  E  E  E  E  E     E  E  E  E  E  E     E  E  E  E  E  E     E  E  E  E  E  E   
-----------2--3-----|--------------------|--0--------2--3-----|--------------5--7--|
--1--------1--1-----|--0-----1-----3-----|--1--------1--1-----|--3--------8--------|
--2--0-----0-----0--|--0-----2--------0--|-----0-----0-----0--|-----0-----0--------|
--2-----2-----------|-----0-----2--------|--2-----2-----------|--0-----0-----0-----|
--0-----------------|--------0-----2-----|--3-----------------|--2-----------------|
--------------------|--------------------|--------------------|--------------------|


  V     -] rall.----------------T:74    T:80   
  ^                   ^                                                              
  E  E  Q    E.  S    E  E  E  E  Q       Q      Q     Q        Q     Q     E  E   
--7--5-------2-----|--3----------------|---------------0-----|--------------------|
--5-----8----1---0-|--3----------------|--3------------------|--3-----1-----0-----|
--5----------2-----|--0--------2--0----|--0------0-----------|-----------------2--|
-------------0-----|--------0----------|--2------------------|--0----(2)----0-----|
--0----------------|-----2-------------|--3-----------(3)----|--------------------|
-------------------|-------------------|---------------------|--------------------|

                       ^                                       
     rall.-----------------T:76  T:80                         rall.-------------------T:76                       
  E  E  E  E  E  E     Q    Q    E  E     Q    Q    Q       Q    Q    Q       Q    Q    E  E   
--------------------|------------------|------------0----|------------2----|--0---------------|
--------0-----------|------------------|-----------------|--3--------------|------------3--0--|
--0--2-----0-----0--|------------------|--0--------------|-----------------|--0----0----0-----|
--------------4-----|--2---------2--4--|-----------------|--0----0----0----|--2---------2-----|
--2-----------0-----|--4----4----------|--0----0----0----|--2---------2----|--3---------3-----|
--0-----------------|------------------|-----------------|-----------------|------------------|


         T:80                  T:78
  Q    Q    Q       Q    Q    E  E     Q    Q    Q       Q    Q    E  E     Q    Q    Q     
-----------------|------------------|-----------------|-------0----------|-----------------|
-----------------|-------3-------0--|-------0----1----|--3------------3--|------------0----|
--2---------2----|--2---------------|--2--------------|------------------|--0----2---------|
--4----4---------|--2---------2-----|--0--------------|------------4-----|-----------------|
-----------------|--3---------3-----|-----------------|--2---------------|-----------------|
-----------------|------------------|-----------------|------------------|--0--------------|


                                                          T:82
  ^                                   ^                                               
  Q    Q    Q       Q    Q    Q       Q    Q    Q       Q    E  E  E  E     E  E  E  E  E  E   
-----------------|-----------------|-----------------|-------------------|-----------------0--|
-------1----0----|-------0---------|-----------------|-------------0--1--|--3-----------------|
--0--------------|--2---------2----|--0--------------|-------0--2--------|--0--0--------0-----|
--2--------------|--4----0----0----|--0----0---------|-------------------|-----------2--------|
--3---------3----|-----------------|--2---------2----|-------------------|--3-----3-----------|
-----------------|-----------------|-----------------|--3----------------|--------------------|

                          rall.---------------T:74  T:82
                        ^                    ^                                      
  E  E  E   E  E  E     E  E  E  E  E  E     Q    Q    E   E     E  E  E  E  E  E   
---------------------|--------------------|-------------------|-----------------0--|
--3-----1------0-----|--------0-----------|-------------------|--------------------|
--2---------------2--|--0--2-----0--------|-------------------|--0-----------0-----|
--0-----0h--2--4-----|--------2-----4--0--|--2---------2h--4--|-----2-----2--------|
-----0---------------|--------------------|--4----L-----------|--0-----0--3--------|
---------------------|--0-----------------|-------------------|--------------------|

                                           2.___________________
                                             III                             
                                             ^                               
  E  E  E  E  Q       E  E  E  E  E  E       H.              Q.     Q.       
-------------------|--0------------------||--3------------|--L-------------||
--3-----0-----3----|--0-----------3--0---||--3------------|--L-------------||
-------------------|--0--0--------0-----*||--4------------|--L-------------||
-----0-----0--4----|-----------0--2-----*||--5------------|--L-------------||
--2-----2----------|--3-----3------------||---------------|----------------||
-------------------|---------------------||---------------|----------------||

OST : http://www.youtube.com/watch?v=xk2d7BTb-SM

CREDITS : I used the great Sperion piano score found from his/her website : 
          http://sperion.web.fc2.com/score/anime.xml

Duration Legend
---------------
W - whole
H - half
Q - quarter
E - 8th
S - 16th
. - note dotted
L - tied note
(n) - ghost note
h - hammer on
p - pull off
^ - brush up
Login or Register to remove this ad.

2 comments on Houkago

Excellent Work

5

Thanks for always posting stuff! I get exposed to so much good music from you. One of my top tabbers :)

wow thanks :D

wow thanks :D