Gomen ne, Iiko ja Irarenai (Kill la Kill) Guitar Tab

Submitted: May 03, 2015 by JordanVS

5
Average: 5 (5 votes)
Download | Listen
Game: Kill la Kill
Composer(s): Hiroyuki Sawano
Style: Arrangement, Fingerstyle

This song is also called Ending Theme 1

AutoScroll: Slow | Medium | Fast
Gomen ne, Iiko ja Irarenai                                                
1st Ending
Kill La Kill
Miku Sawai 
JordanVS                                                                                            
*Capo on the 5th fret
-Tempo : 155


                                                                                             |--3--|                
     E  E  E  E  E  E  E  E     E  E  E  E  E  E  E  E     E  E  E  E  E  E  E  E     E  S S S  S  S Q    E  E  E   
E||-----0--------------------|-----0--------------------|-----0-----------------0--|--L--------------3-------------|
B||--3-----1--3--0--1-----0--|--3-----1--3--0--1-----0--|--3-----1--3--0--1--------|-----3-1-3s-4s-5-0-------------|
G||--2-----------------2-----|--2-----------------2-----|--2-----------------2-----|-----------------0-------0-----|
D||--------0-----0-----------|--------0-----------------|--------0-----0-----------|-----3-------------------------|
A||--0--------------3--------|-----------3--------------|-----------------3--------|-------------------------------|
E||--------------------------|--3-----------------3-----|--2--------------------1--|--L--------------3----3-----3--|


  E  E  E  E  E  E  E  E     E  E  E  E  E  E  E  E     E  E  E  E  E  E  E  E     E  S S  S S Q    E  E  E   
-----0--------------------|-----0--------------------|-----0-----------------0--|--L---------0---------------|
--3-----1--3--0--1-----0--|--3-----1--3--0--1-----0--|--3-----1--3-----0--1-----|-----3-1h-3---3----L--1-----|
--2-----------------2-----|--2-----------------2-----|--2-----------2-----------|--------------0----L-----2--|
--------------------------|--------------------------|--------------------------|-----3----------------------|
--0-----------0-----------|--------------------------|--------------------------|----------------------3--0--|
--------------------------|--3-----------3-----------|--2-----------2--------1--|--L-----------3----3--------|


                                                                                                             
  E   S S S S E  E  E  E  E     E  E  E  E  E  E  E  E     E  E  E  E  E  E  E  E     E  E  Q    Q    E  S S  
------------5-L--L-----------|--------------------------|-----0--------------------|-------------------------|
----------5------------------|--------------------------|--------1--3--0--1--------|-------------0----L----0-|
--------5--------------2-----|--------------------------|--------------------2-----|--2------------------2---|
-----\7-------------------2--|--0--2-----0--------------|-----------------------2--|--0--2---------------2---|
--L-----------------0--------|--------3-----2--3--0--2--|--------------------------|--------0----------------|
-----------------------------|--5-----------------------|--3-----------------------|--2---------------2------|


  E   S S S S Q    E  E  E     E  E  E  Q    E  E  E     E  E  E  E  E  E  Q       E  E  E  Q    E  Q     
------------5-L-------------|-------------------------|-------------------------|------------------------|
--1-------5---L-------------|----------------1--------|--0-----1--0-------------|-----------1------------|
--------5-----L-------------|-------------------2-----|-----------------0-------|-----------0------------|
-----\7-------L-------------|--3-----3--3----0-----0--|-----0-----0-------------|--0--2-------------2----|
-------------------3--------|--5-----5--5-------------|-------------------------|-----3--3----------2----|
--2----------------------5--|-----5-------------------|--3-----------3-----3----|--3-------------0--0----|


                                                                                              ^             
  E  E  E  E  E  E  E  E     E  E  E  E  E  E  E  E     E  E  Q    Q    E  S S    E  S S  S S Q    Q    E   
--------------------------|-----0--------------------|-------------------------|--------------5------------|
--------------------------|--------1--3--0--1--------|-------------0----L----0-|--1-----------5------------|
--------------------------|--------------------2-----|--2------------------2---|--------------5---------2--|
--0--2-----0--------------|-----------------------2--|--0--2---------------2---|------------7-L------------|
--------3-----2--3--0--2--|--------------------------|--------0----------------|-----0-3s-7----------------|
--5-----------------------|--3-----------------------|--2---------------2------|--2------------------------|


  E  E  E  E  E  E  Q       E  E  E  E  E  E  E  E     E  E  E  E  E  E   E  E     E  E  E  E  E  E  E  E   
--1-----1--1-----0-------|--------------------------|---------------------------|--------------------------|
--3-----3--3-----1-------|--3-----------------------|---------------------------|--------------------------|
-----2-----------2-------|--4-----4--4-----------2--|--L------------------------|--------------0-----2-----|
--0-----0-----0-----0----|--------5--------5-----2--|--L-----0--0--0--2p--0-----|-----0--4-----------------|
-------------------------|-----5-----5-----------0--|--L-----0--0--0---------4--|--L-----------------------|
-------------------------|--3-----------3-----3-----|-----0------------------5--|--L-----------------------|


  ^                                               ^                                             
  E  Q    Q    E  E  E     E  Q    Q    Q.        E  Q    Q    E  E  E     E  Q    Q    Q.      
--1--1----1----0--------|----------------------|--0--0----0-------------|----------------------|
--3--3----3----------3--|--L------------3------|--1--1----1----3-----1--|--L-------0----1------|
--2------------------4--|--L--4----5----4------|--0-------0----------2--|--L--2---------2------|
--0-------0----------5--|--L--5----5-----------|--2------------0--2--3--|--L--3----3-----------|
------------------------|----------------------|--3-------3-------------|----------------------|
---------------0--1--3--|--L-------3----L------|---------------------1--|--L-------1----L------|


                                                                               ^                      
  E  Q    Q    E  E  E     E  E  E  Q    E  E  E     E  Q    E  E  E  E  E     E  Q    Q    E  E  E   
------------------------|-------------------------|-------------------------|--1--1----1----0--------|
--3--3----3----1-----0--|--L-------------0-----2--|--L----------------------|--3--3----3----------3--|
--2--2----2----------1--|--L--1-----2-------------|-------------------------|--2------------------4--|
--0-------0----0--0--2--|--L-------------------2--|--L----------0-----2-----|--0-------0----------5--|
------------------------|-----------0----2-----4--|--L--4-------2-----4-----|------------------------|
---------------------0--|--L--4-------------------|-----5-------------------|---------------0--1--3--|


                         ^                                                                         
  E  Q    Q    Q.        E  Q    Q    E  E  E     E  Q    Q    Q    E     E  E  E  E  E  E  E  E   
----------------------|--0--0----0-------------|-----------------------|--------------------------|
--L------------3------|--1--1----1----3-----1--|--L-------0----1----1--|--0--------1--0--------1--|
--L--4----5----4------|--0-------0----------2--|--L--2---------2-------|--------------------------|
--L--5----5-----------|--2------------0--2--3--|--L--3----3---------3--|--3--------3--3--------3--|
----------------------|--3-------3-------------|-----------------------|-----5--5--------5--5-----|
--L-------3----L------|---------------------1--|--L-------1----L-------|--------------------------|


  Q    E  E  E  E  E  E     E  E  E  E  E  E  E  E     E  E  E  E  E  E  E  E     Q    E  Q    Q    E   
----------------1-----0--|--L-----------------------|-----------------------0--|--5----5--5----3----3--|
--0----1--3-----------0--|--L-----------------------|-----------------0--1-----|--1----1--1----1----0--|
----------------------1--|--L-----------------------|--------------2-----2-----|--2----2--2----2----0--|
--0----0--0--0--3--1--2--|--L--2--2-----2--2-----2--|--L--2--2-----2-----------|-----------------------|
-------------------------|-----2--2-----2--2-----2--|--L--2--2-----------------|-----------------------|
-------------------------|-----0--0-----0--0-----0--|--L--0--0-----------------|--1-------L----1----3--|


  E  Q    E  Q    E  E     Q    E  Q    Q    E     E  E  Q    E  E  E  E     Q    E  Q    E   E  E   
--L--1---------------1--|--3----3--3----1----1--|--L--0--L-------------0--|--1----1--1----0---------|
--L--0-------3----3--0--|--0----0--0---------1--|--L--1--L----1--1--1-----|--3----3--3-----------3--|
--L--0-------0----0-----|--0----0--0----2----2--|--L--2--L----2--2--2-----|--2-------------------0--|
------------------------|-----------------------|-------------2--2--2-----|--0-------0----2p--0--0--|
------------------------|--------------------0--|--L-----0----------------|-------------------------|
--L-------3-------L-----|--0-------L------------|-------------------------|----------------------3--|


  E  Q    Q    Q    E     E  E  Q    Q    E  E     E  E  E  E  E  E  E  E     Q    E  Q    Q    E   
--------------------0--|--L---------------------|-----------------------0--|--5----5--5----3----3--|
--L--0----1----3-------|------------------------|-----------------0--2-----|--1----1--1----1----0--|
--L--0----0----0----2--|--L-----0----2----0--2--|--L-----------2-----------|--2----2--2----2----0--|
--L--0----0----0----2--|--L-----0----2----0--2--|--L-----------------------|-----------------------|
--------------------0--|--L--0-------0-------0--|--L--0--2--4--------------|-----------------------|
--L-------3----L-------|--------3---------3-----|--------------------------|--1-------L----1----3--|


   E  Q    Q    Q    E     E  E  E  E  E  Q    E     E  E  E  Q    Q    E     E  E  E  Q    E   E  E   
---L--1----0----1-------|--3--3--3--3-----1----1--|--L--0----------0-------|--1--1--1--1----0---------|
---L--0----0----0-------|--5--5--5--5----------1--|--L--------3------------|--3--3--3--3-----------3--|
---L--0----0----0----0--|--4--4--4--4-----2----2--|--L---------------------|--2-----------------------|
------------------------|-------------------------|-----2-----0----2----3--|--0--------L----2p--0-----|
------------------------|----------------------0--|--L-----0-------0-------|-----------------------2--|
---L-------3------------|--0--------L--0--L-------|------------------------|--------------------------|


                            ^           ^                                                                 
  E  E  E  Q    E  E  E     E  E  E  E  E  E  E  E     E  E  E  E  E  E  E  E     E  E  E  Q    E  E  E   
----------------------1--|--0--------1--0--------1--|--0--1-----0--------------|-------------------------|
--L--0-----1----3--------|--0-----------0-----------|--------3-----1--3--0--1--|-----------0-------------|
-------------------------|--1-----------1-----------|--------------------------|--2-----2-------2--0--2--|
----------------0-----3--|--2--------3--2--------3--|--------0--------0--------|-------------------------|
--L--2--2--3-------2-----|--------------------------|--------------------------|-----------2-------------|
-------------------------|-----0--0--------0--0-----|--0-----------0-----0-----|--1-----1-------3--3--3--|


                ^            
  E  E  S S S S E  E  Q      
----------------5----------||
--------------5-5----------||
--L---------5---5----------||
----------7-----7----------||
-----0----------0----------||
--L------------------------||




Duration Legend
---------------
W - whole
H - half
Q - quarter
E - 8th
S - 16th
T - 32nd
X - 64th
. - note dotted
|-n-|  - n-tuplets


Tablature Legend
----------------
L - tied note
x - dead note
g - grace note
(n) - ghost note
> - accentuded note
NH - natural harmonic
AH - artificial harmonic
TH - tapped harmonic
SH - semi harmonic
PH - pitch harmonic
h - hammer on
p - pull off
b - bend
br - bendRelease
pb - preBend
pbr - preBendRelease
brb - bendReleaseBend
\n/ - tremolo bar dip
\n - tremolo bar dive
-/n - tremolo bar Release up
/n\ - tremolo bar inverted dip
/n - tremolo bar return
-\n - tremolo bar Release down
S - shift slide
s - legato slide
/ -  slide into from below or out of upwards
\ -  slide into from above or out of downwards
~ - vibrato
W - wide vibrato
tr - trill
TP - tremolo picking
T - tapping
S - slap
P - pop
< - fade in
^ - brush up
v - brush down
Login or Register to remove this ad.

5 comments on Gomen ne, Iiko ja Irarenai

Sweet! I tried arranging this

5

Sweet! I tried arranging this once myself but couldn't get it sound very good myself.

By the way, ii ko is two

By the way, ii ko is two words.

Are you sure? I mean, sure,

Are you sure? I mean, sure, it is "good child", but the way it's actually used in Japanese seems to be a single compound word to me, similar to, say, iikoto. It's kinda hard to tell with Japanese when it's written together anyway. Not that I would know for sure, but my Japanese text book's dictionary lists it as a single word and so did a random dictionary I found online, and that's the only way I have ever seen the song romanized too.

日本国語大辞典 lists it as a 慣用句,

日本国語大辞典 lists it as a 慣用句, while 明鏡国語辞典 along with 大辞林 and 大辞泉 list it as a 連語, so none of those dictionaries consider it a single word. Martin's Reference Grammar of Japanese lists it as a construction romanized with a space, not as a compound.

Hmm, I see. Those are

Hmm, I see. Those are certainly more credible sources than random language learner's gut feeling. I wonder why it is so often romanized wrong.