Ads

Ad la Lib (Kill la Kill) Guitar Tab

Submitted: Mar 31, 2014 by Basisti94

5
Average: 5 (12 votes)
Download | Listen
Game: Kill la Kill
Composer(s): Hiroyuki Sawano
Style: Arrangement, Fingerstyle

AutoScroll: Slow | Medium | Fast
    	Adƒ‰Lib
                                
Kill la Kill
Hiroyuki Sawano
Guitar Arrangement by Basisti94 (Miro Laaksonen)
30.3.2014

-----------------------------------
A wonderful piece from the recently ended Kill la Kill.
-----------------------------------

Capo 3
Tempo ~ 50
     H        H           Q    E  S S Q.     E     Q    E  S S  Q.     E   
E||--------------------|--3-------3-2-7------0--|------------0-10------8--|
B||-----------0--------|-------0----------------|--8-------8--------------|
G||--------------------|-------0----------------|-------------------------|
D||--------------------|------------------------|-------------------------|
A||--------------------|------------------------|-------7-----------------|
E||--------------------|--0---------------------|--5----------------------|


                                        |--3--|  |--3--|   
  Q    E.   S  E.   E.  E     Q    Q    E  E  E  E  E  E   
--2-----------12---10---8--|--7---------------3--L--5--0--|
-------0-------------------|-------0----0--3--------------|
-----------11--------------|-------0----------------------|
--0------------------------|------------------------------|
---------------------------|------------------------------|
---------------------------|--3---------------------------|


  Q    Q    Q    Q       Q    Q    Q    E  E     Q    Q    E  E  E  E   
--7---------7----2----|--2---------5----2--3--|--3---------------------|
----------------------|-----------------------|-------0----------1--0--|
-------0--------------|-------2---------------|-------0-------0--------|
----------------------|-------1---------------|------------4-----------|
--3-------------------|--2--------------------|------------------------|
----------------------|-----------------------|--0---------------------|


                                           ^         
                                  |--3--|  |--3--|   
  Q    H        Q       Q    Q    E  E  E  E  E  E   
---------------------|--3------------3--2--5--7--2--|
----------------0----|-------0----0--------0--------|
---------------------|-------0----0--------0--------|
---------------------|------------------------------|
-------2-------------|------------------------------|
--0----0-------------|--0---------------------------|


                                                    ^           
       |--3-|   |--3-|  |--3--|     |-3-|                       
  Q    Q    E   Q    E  E  E  E     S S Q    E  S S Q    E  E   
--2---------2--10----8-----7--5--|--7-5-7-------0-3-5-------3--|
-------3-------------------------|-----------0------0----0-----|
-------2-------------------------|-----------0------0----0-----|
--0-------------0-------0--------|-----------------------------|
---------------------------------|--3--------------------------|
---------------------------------|-----------------------------|


                 |--3--|                               
  Q    Q    Q    E  E  E     E  E  E.  S E.   S E  E   
--2-----------------------|-----0------0-7---10----7--|
------------3-------3-----|--3-----0------------------|
-------4----4----4-----4--|---------------------------|
-------4----4----4--------|--------2------------------|
--2-----------------------|--0-----------0------0-----|
--------------------------|---------------------------|


               ^                                ^                             
       |--3-|                           |--3-|                                
  Q    Q    E  E  E  E  E     Q    Q    Q    E  E  E     Q    Q    Q.     E   
--3----L----3--5--3--2-----|--0--------------0--3--2--|--2----------------0--|
-------0-------0--------0--|-------0------------------|----------------------|
-------0-------0-----------|-------0----0-------0-----|--4----4--------------|
---------------------0-----|------------2-------2-----|--4-------------------|
---------------------------|--3-----------------------|--2---------2---------|
--0------------------------|--------------------------|----------------------|


                                                ^                 
       |---3---|      |--3--|          |--3-|   |--3-|  |--3--|   
  Q    E  E  S S Q    E  E  E     Q    Q    E   Q    E  E  E  E   
--3----L--3--2-0-7----L--2--3--|--3---------3--10----8-----7--5--|
-------0--------------3--------|-------0--------0-------0--------|
-------0--------------2--------|-------0--------0-------0--------|
-----------------0-------------|---------------------------------|
--3----------------------------|---------------------------------|
-------------------------------|--0------------------------------|


  |-3-|    |-3|    |--3--|  |--3--|                    |--3--|   
  S S Q    E  Q    E  E  E  E  E  E     Q    Q    Q    E  E  E   
--7-5-7-------0-------2--3--5--3--2--|--3----2------------------|
-----------0----------------3--------|-------0----3-------------|
-----------0----------------2--------|-------0----0-------------|
-------------------0-----------------|------------2-------2--2--|
--3----------------------------------|-----------------2--------|
-------------------------------------|--0-----------------------|


                                        ^             ^         
       |---3---|      |---3--|               |--3--|  |--3--|   
  Q    E  E  S S Q    E  E   E     Q    Q    E  E  E  E  E  E   
--3----L--3--2-0-7----L--2--10--|--L----8----7--5--3--3--2--0--|
-------0--------------3---------|-------0----0--------0--------|
-------0--------------2---------|-------0----0--------0--------|
-----------------0--------------|------------------------------|
--3-----------------------------|------------------------------|
--------------------------------|--0---------------------------|


       |--3--|  |-3|    |--3-|               |--3-|  |--3--|   
  Q    E  E  E  E  Q    Q    E     Q    Q    Q    E  E  E  E   
--0-------2--3--3--2----L----3--|--3--------------------------|
-------0----------------3-------|------------0----1-----3--0--|
-------0----------------2-------|--0----0----0-------0--------|
-------2--------0---------------|--2----2----2-------2--------|
--3-----------------------------|-----------------------------|
--------------------------------|--0--------------------------|


            |--3--|  |--3--|          |--3-|  |--3--|  |--3--|   
  Q    Q    E  E  E  E  E  E     Q    Q    E  E  E  E  E  E  E   
------------------------------|------------0--------------------|
--0---------0-----1-----3--1--|--0------------3--0--1--0--------|
--2----2----0-----2-----------|--0----0-------0-----------2--2--|
--0----0-------2-----0--------|---------------------------------|
------------------------------|--3----3-------3--------3--------|
------------------------------|---------------------------------|

				accel.
       |--3-|              |-3-| |-3-| |-3-| |-3-| |-3-| |-3-| |-3-| |-3-|  
  Q    Q    E  H           S S S S S S S S S S S S S S S S S S S S S S S S  
------------------------|--2-----2-----2-----2-----2-----2-----2-----3-----|
--0---------------------|----0-----0-----0-----0-----0-------0-----0-----0-|
--2----2----------------|------0-----0-----0-----0-----0---0-----0-----0---|
--0----0----2-----------|--2-----------------------0-----------------------|
---------------2--------|--------------------------------------------------|
------------------------|--------------------------------------------------|
 
 rall.			accel.
  |-3-| |-3-| |-3-| |-3-| |-3-| |-3-| |-3-|     
  S S S S S S S S S S S S S S S S S S S S S E   
--3-----3-----3-----3-----3-----2-----3-----5--|
------0-----0-----0-----0-----0-----0-----0----|
----0-----0-----0-----0-----0-----0-----0------|
-----------------------------------------------|
--3--------------------------------------------|
-----------------------------------------------|

			
  |-3-| |-3-| |-3-| |-3-| |-3-| |-3-| |-3-|     
  S S S S S S S S S S S S S S S S S S S S S E   
--7-----7-----7-----7-----7-----5-----7-----8--|
------5-----5-----5-----5-----5-----5-----5----|
----4-----4-----4-----4-----4-----4-----4------|
-----------------------------------------------|
-----------------------------------------------|
--0-----------------------0--------------------|

(tempo ~ 68) 
  |-3-| |-3-| |-3-| |-3-| |-3-| |-3-| |-3-| |-3-|  
  S S S S S S S S S S S S S S S S S S S S S S S S  
--7-----7-----7-----7-----7-----5-----7-----8-----|
------5-----5-----5-----5-----5-----5-----5-----5-|
----4-----4-----4-----4-----4-----4-----4-----4---|
--0-----------------------0-----------------------|
--------------------------------------------------|
--------------------------------------------------|


  |-3-| |-3-| |-3-| |-3-| |-3-| |-3-| |-3-| |-3-|  
  S S S S S S S S S S S S S S S S S S S S S S S S  
--7-----5-----3-----5-----7-----5-----3-----2-----|
------5-----5-----5-----5-----5-----5-----5-----5-|
----4-----4-----4-----4-----4-----4-----4-----4---|
--------------------------------------------------|
--3-----------------------3-----------------------|
--------------------------------------------------|


  |-3-| |-3-| |-3-| |-3-| |-3-| |-3-| |-3-|     
  S S S S S S S S S S S S S S S S S S S S S E   
--3-----5-----7-----5-----3-----2-----3-----5--|
------5-----5-----5-----5-----5-----5-----5----|
----4-----4-----4-----4-----4-----4-----4------|
-----------------------------------------------|
--2-----------------------2--------------------|
-----------------------------------------------|


  |-3-| |3|  |-3-| |3|  |-3-| |3|  |-3-| |3|   
  S S S S E  S S S S E  S S S S E  S S S S E   
----------------------------------------------|
----------------------------------------------|
--0---0---0--0---0---0--0---0---0--0---0---0--|
----0---0------0---0------0---0------0---0----|
--2----------2----------2----------2----------|
----------------------------------------------|

	rall.
  |-3-| |3|  |-3-| |3|  |-3-| |3|  |-3| |3|                              
  S S S S E  S S S S E  S S S S E  E  S S E     E  E  E  E  E  E  E  E   
---------------------------------------------|--------------------------|
----------------------------0---1--3--1---0--|--0-----------------------|
--0---0---0--0---0---0--0--------------------|--------2-----0-----------|
----0---0------0---0------0--------0---------|--------------------4-----|
--5----------5----------5-----2---------2----|--3-----3-----3-----3-----|
---------------------------------------------|-----3-----3-----3-----3--|

 (tempo ~ 50)
  Q    Q    Q    Q        Q.     E    Q.     E     W                  
----------------------|--12------7--7g8------5--|--7----------------||
----------------------|-------------------------|-------------------||
-------0----0---------|-------------------------|-------------------||
--4--------------4----|-------------------------|-------------------||
--5---------2---------|-------------------------|-------------------||
----------------------|---0---------------------|-------------------||


 Those tempo shifts in the arpeggio part are very approximate



Duration Legend
---------------
W - whole
H - half
Q - quarter
E - 8th
S - 16th
T - 32nd
X - 64th
. - note dotted
|-n-|  - n-tuplets


Tablature Legend
----------------
rall. - gradually decrease tempo
accel. - gradually increase tempo
L - tied note
x - dead note
g - grace note
(n) - ghost note
> - accentuded note
NH - natural harmonic
AH - artificial harmonic
TH - tapped harmonic
SH - semi harmonic
PH - pitch harmonic
h - hammer on
p - pull off
b - bend
S - shift slide
s - legato slide
/ -  slide into from below or out of upwards
\ -  slide into from above or out of downwards
~ - vibrato
W - wide vibrato
tr - trill
TP - tremolo picking
T - tapping
S - slap
P - pop
< - fade in
^ - brush up
v - brush down
Login or Register to remove this ad.

4 comments on Ad la Lib

Beautiful Transcription and Making it playable on guitar

5

Great job with this! Really captured the emotions of Ryuko during that episode where this was played…

Nailed it

5

Kind of ridiculous how well this translated xD

Have to agree on this one, it

Have to agree on this one, it plays and sounds incredible

Awesome

5

Great piece, perfect tab.