Ads

Starting the Job (Kiki's Delivery Service) Guitar Tab

Submitted: Apr 09, 2013 by JordanVS

5
Average: 5 (8 votes)
Download | Listen
Game: Kiki's Delivery Service
Composer(s): Joe Hisaishi
Style: Arrangement, Fingerstyle

This song is also called Shigoto Hajime

AutoScroll: Slow | Medium | Fast
Starting the Job                                      
Shigoto Hajime
Kiki's Delivery Service Ost
Joe Hisaishi
JordanVS

*Capo on 3rd fret!

*If you play this at a lower speed (like 145-150 BPM) 
you'll have "I'll be All Right/Genki ni Naresou Hajime" 
from the Image Album.
Hurray for similar songs! \^o^/



     E  E  E  E  Q    Q       E  E  E  E  Q    Q       E  E  E  E  E  E  E  E   
E||--5--5--4--5--7----5----|--2--2-----2--3----2----|--------------------------|
B||--3---------------------|--3-----6---------------|--3--3--2--3--5--3--2--0--|
G||--2---------------------|--2---------------------|--2-----------------------|
D||--0-----------L---------|--0-----------L---------|--0-----------L-----------|
A||------------------------|------------------------|--------------------------|
E||------------------------|------------------------|--------------------------|


            ^                                                           
  Q    Q    Q    Q         Q    Q    Q    E  E     Q    Q    Q    Q     
------------5---------||------------------------|--0-------------------|
------------5---------||---3----3----3----2--3--|----------------------|
--2---------6---------||*-------2---------2-----|-------0---------0----|
-------2---------7----||*--0--------------------|----------------------|
--0---------0---------||-------------0----------|--4---------0---------|
----------------------||------------------------|----------------------|


  Q    Q    Q    E  E     Q    Q    Q    Q       Q    Q    Q    E  E   
--0----0----0-------0--|--2-------------------|--2----2----2----0--2--|
-----------------3-----|----------------------|-----------------------|
-------0---------0-----|-------2---------2----|-----------------------|
-----------------------|--0-------------------|--0----4----0----------|
--4---------0----------|------------0---------|-----------------3-----|
-----------------------|----------------------|-----------------------|


  Q    Q    E  E  E  E     Q    Q    Q    E  E     Q    Q    Q    Q     
--3----3----3--2--0-----|-----------------------|----------------------|
---------------------3--|--2----2----2----0--2--|--3-------------------|
------------------------|-----------------------|-----------------2----|
-------0----------0-----|-------2---------2-----|--0---------0---------|
--2---------------------|--0---------0----------|-------0--------------|
------------3-----------|-----------------------|----------------------|


  Q    Q    Q    E  E     Q    Q    Q    Q       Q    Q    Q    E  E   
-----------------------|--0-------------------|--0----0----0-------0--|
--3----3----3----2--3--|----------------------|-----------------3-----|
-------2---------2-----|-------0---------0----|-------0---------0-----|
--0--------------------|----------------------|-----------------------|
------------0----------|--4---------0---------|--4---------0----------|
-----------------------|----------------------|-----------------------|


  Q    Q    Q    Q       Q    Q    Q    E  E     Q    Q    E  E  E  E   
--2-------------------|--2----2----2----0--2--|--3----3----3--2--0-----|
----------------------|-----------------------|---------------------3--|
-------2---------2----|-----------------------|------------------------|
--0-------------------|--0----4----0----------|-------0----------0-----|
------------0---------|-----------------3-----|--2---------------------|
----------------------|-----------------------|------------3-----------|

					      -Segno

  Q    Q    Q    E  E     Q    Q    Q    Q       Q    Q    Q    E  E   
-----------------------|----------------------|--7----7----7----5--3--|
--2----2----2----0--2--|--3--------------3----|-----------------------|
-----------------------|--2-------------------|-----------------------|
-------2---------2-----|-------0----2----4----|-------0---------0-----|
--0---------0----------|----------------------|-----------------------|
-----------------------|----------------------|--3---------7----------|


  Q    Q    Q    Q       Q    Q    Q    E  E     Q    Q    Q    Q     
--5--------------5----|--3----3----3----2--0--|--2-------------------|
----------------------|-----------------------|----------------------|
-------2---------2----|-------0---------0-----|-------2---------2----|
--0-------------------|-----------------------|--0-------------------|
------------0---------|--4---------0----------|------------0---------|
----------------------|-----------------------|----------------------|


  Q    Q    Q    E  E     Q    Q    Q    Q       Q    Q    Q    Q     
--2----2----2----4--6--|--7--------------7----|--7---------5----4----|
-----------------------|------------7---------|----------------------|
-----------------------|----------------------|----------------------|
-----------------------|-------0----4----0----|----------------------|
--4---------1----------|----------------------|----------------------|
-------0---------0-----|--7-------------------|--0----0----2----4----|


  Q    Q    Q    Q       Q    Q    Q    E  E     Q    Q    Q    Q     
--5-------------------|-----------------------|--0-------------------|
----------------------|--3----3----3----2--3--|----------------------|
-----------------2----|-------2---------2-----|-------0---------0----|
----------------------|--0--------------------|----------------------|
--0----0----2----4----|------------0----------|--4---------0---------|
----------------------|-----------------------|----------------------|


  Q    Q    Q    E  E     Q    Q    Q    Q       Q    Q    Q    E  E   
--0----0----0-------0--|--2-------------------|--2----2----2----0--2--|
-----------------3-----|----------------------|-----------------------|
-------0---------0-----|-------2---------2----|-----------------------|
-----------------------|--0-------------------|--0----4----0----------|
--4---------0----------|------------0---------|-----------------3-----|
-----------------------|----------------------|-----------------------|

				        -Da Coda 1.

  Q    Q    E  E  E  E     Q    Q    Q    E  E     Q    Q    Q    Q     
--3----3----3--2--0-----|-----------------------|----------------------|
---------------------3--|--2----2----2----0--2--|--3-------------------|
------------------------|-----------------------|----------------------|
-------0----------0-----|-------2---------2-----|--0---------0---------|
--2---------------------|--0---------0----------|-------0--------------|
------------3-----------|-----------------------|----------------------|


  Q    Q    E  E  E  E     Q    Q    Q    Q       Q    Q    E  E  E  E   
--2---------2--3-----5--|--0-------------------|---------------0-----2--|
------------------------|----------------------|--3---------3-----------|
-------2----------2-----|-----------------2----|------------------------|
--0---------0-----------|-------2---------2----|-------0----------0-----|
------------------------|--4---------4---------|--2---------2-----------|
------------------------|----------------------|------------------------|


  Q    Q    Q    Q       Q    Q    E  E  E  E     Q    Q    Q    Q     
----------------------|------------------------|-----------------2----|
--2-------------------|--0---------0--2-----3--|------------3---------|
-------2---------2----|------------------------|--2-------------------|
----------------------|-------0----------0-----|----------------------|
--0---------0---------|------------------------|-------0---------0----|
----------------------|--3---------3-----------|--2---------2---------|


  Q    Q    E  E  E  E     Q    Q    Q    Q       Q    Q    Q    Q       
--3---------3--2--0-----|--2-------------------|--0--------------------||
---------------------3--|--2-------------------|--0--------------------||
------------------------|--4-------------------|--0--------------2----*||
------------------------|-------4---------4----|----------------------*||
------------------------|----------------------|--0---------0----------||
--0----0----2-----3-----|--2---------2---------|-------0---------------||

2.	-D.S. al Coda  -Coda

  Q    Q    Q    Q       Q    Q    Q    Q       Q    Q    Q    E  E   
----------------------|----------------------|--2----2----2----0--2--|
--3--------------3----|--3-------------------|-----------------------|
----------------------|-----------------2----|-----------------------|
--0---------0---------|--0---------0---------|--0----4----0----------|
-------0--------------|-------0--------------|-----------------3-----|
----------------------|----------------------|-----------------------|


  Q    Q    E  E  E  E     Q    Q    Q    E  E     Q    Q    Q    Q     
--3----3----3--2--0-----|-----------------------|----------------------|
---------------------3--|--2----2----2----0--2--|--3-------------------|
------------------------|-----------------------|--2-------------------|
-------0----------0-----|-------2---------2-----|-------0----2---------|
--2---------------------|--0---------0----------|----------------------|
------------3-----------|-----------------------|----------------------|


  E  E  E  E  Q    Q       E  E  E  E  Q    Q       E  E  E  E  E  E  E  E   
--5--5--4--5--7----5----|--2--2-----2--3----2----|--------------------------|
--3---------------------|--3-----6---------------|--3--3--2--3--5--3--2--0--|
--2---------------------|--2---------------------|--2-----------------------|
--0-----------L---------|--0-----------L---------|--0-----------L-----------|
------------------------|------------------------|--------------------------|
------------------------|------------------------|--------------------------|


  Q    Q    Q    Q       W                  
------------5---------|--2----------------||
------------5---------|--3----------------||
--2---------6---------|--2----------------||
-------2---------7----|--0----------------||
--0---------0---------|-------------------||
----------------------|-------------------||




Duration Legend
---------------
W - whole
H - half
Q - quarter
E - 8th
. - note dotted


Tablature Legend
----------------
L - tied note
^ - brush up
v - brush down
Login or Register to remove this ad.

2 comments on Starting the Job

I really like this one.

5

I really like this one. Kiki's Delivery Service has one of my favourite soundtracks of all time.

Wahoo, impressive transcription !!

5

What a joy to catch another Ghibli tab especially this high quality, thanks for that ^^