Ads

Cold Iron (Katawa Shoujo) Guitar Tab

Submitted: Sep 05, 2013 by Basisti94

5
Average: 5 (3 votes)
Download | Listen
Game: Katawa Shoujo
Composer(s): Blue123, Nicol Armarfi
Style: Arrangement, Fingerstyle

AutoScroll: Slow | Medium | Fast
                            Cold Iron
                                
Katawa Shoujo
NicolArmarfi  
Guitar arrangement by Basisti94 (Miro Laaksonen)
3.9.2013


Tempo ~ 80

     E  Q.     E  Q.        E  Q.     E  Q.        H.           Q     
E||--0---------1---------|--3---------1---------|--0-----------------|
B||--1---------1---------|--1---------1---------|--1-----------------|
G||--2---------2---------|--2---------2---------|--2-----------------|
D||--2---------3---------|------------3---------|--2-----------------|
A||--0--0------0--0------|--0--0------0--0------|--0-----------------|
E||----------------------|----------------------|--------------------|


  E  E  E  E  E  E  E  S S    E  E  E  E  E  E  E  S S  
--0--------0--1--------1-0-|---------------------------|
-----1-----------1---------|--3--------3--5--------3---|
--------2-----------2------|-----4-----------4-------5-|
---------------------------|--------5-----------5------|
--0------------------------|--------------3------------|
--------------1------------|--3------------------------|


  E  E  E  E  E  E  E  S S    E  E  E  E  E  E  E  E   
--------0------------------|--------------0-----------|
-----1-----1--3----------3-|--4--------4-----3--0-----|
--2--------------4-----5---|-----4--2--------------1--|
--------------------5------|--------------------------|
---------------------------|--------------------------|
--1-----------3------------|--2-----------0-----------|


  E  E  E  E  E  E  E  S S    E  E  E  E  E  E  E  S S  
--0--------0--1--------1-0-|---------------------------|
-----1-----------1---------|--3--------3--5--------3---|
--------2-----------2------|-----4-----------4-------5-|
---------------------------|--------5-----------5------|
--0------------------------|--------------3------------|
--------------1------------|--3------------------------|


  E  E  E  E  E  E  E  E     E  E  E  S S H         
--------0-----------0-----|--------0---------------|
-----1--------0-----------|-----3-----3-0-1--------|
--2--------3-----2-----2--|--1--------2---2--------|
--------------------------|------------------------|
--------------------------|---------------3--------|
--1-----------2-----------|--0---------------------|


  E  E   E  E   E   E   E   E      E   E   E   E  Q    Q     
------------8------------------|----------------------------|
--------10-----12--------------|--10----------10--8---------|
-----9-----------------12------|----------10----------------|
--7----------------12------12--|------10----------5---------|
---------------10--------------|---8-------------------7----|
-------------------------------|----------------------------|


  E  E  E  E  E  E  E  E     E  E  E  E  E  E  E  E   
--1--------1--0-----------|--------------------------|
--------3-----------1-----|--3-----------1-----------|
-----2-----------2-----2--|--------5--4--------2-----|
--0-----------------------|-----3-----------2-----2--|
--------------3-----------|--------------0-----------|
--------------------------|--4-----------------------|


  E  E   E  E   E   E   E   E      E   E   E   E  Q    Q     
------------8------------------|----------------------------|
--------10-----12--------------|--10----------10--8---------|
-----9-----------------12------|----------10------5---------|
--7----------------12------12--|------10--------------------|
---------------10--------------|---8-------------------7----|
-------------------------------|----------------------------|


  E  E  E  E  E  E  E  E     E  E  E  E  E  E  Q       Q    S S S S Q    Q     
--1--------1--0-----------|--------------------0----|--1----L-0---------------|
--------3-----------1-----|--3--------3--1-----1----|--3--------3-1-0----3----|
-----2-----------2-----2--|--------1--------2-------|---------------1----4----|
--0-----------------------|-----3-------------------|---------------2---------|
--------------0-----------|--------------0----------|--2----------------------|
--------------------------|--0----------------------|--0------------0---------|


  Q.     S S Q    Q       Q    S S S S Q    Q       Q.     S S H         
------------------0----|--1----L-0---------------|----------------------|
-----------0------1----|--3--------3-1-0----3----|-----------0----------|
--1------2---2---------|---------------1----4----|--1------2---2--------|
--2--------------------|---------------2---------|--2-------------------|
--2----------0---------|--2-----------------2----|--2----------0--------|
-------------0---------|---------------0---------|-------------0--------|


                              ^         ^            ^          ^         
  E  E  E  E  E  E  E  E      H         H            Q    Q     H         
-----------------------0--|--12--------13--------|--15---------13--------|
--------1-----0--1--3-----|----------------------|-----------------------|
-----------1--------------|--14--------14--------|--14---------14--------|
--1--2--------------------|--14--------14--------|--14---------14--------|
--------------------------|----------------------|--------0--------------|
--------------------------|----------------------|-----------------------|


   ^                                                                       
   W                   E  E  E  E  E  E  E  E     E  E  E  E  E  E  E  E   
--12----------------|--0--------0--1--------1--|--3--------3--1--------1--|
--------------------|-----1-----------1--------|-----1-----------0--------|
--14----------------|--------2-----------2-----|--------2-----------1-----|
--14----------------|--------------------------|--------------------------|
--------------------|--0-----------------------|--------------------------|
--------------------|--------------1-----------|--3-----------0-----------|


  E  E  E  E  E  E  E  E     E  E  E  E  E  E  E  E   
--0--------0--1--------1--|--3--------3--1-----------|
-----1-----------1--------|-----1-----------0-----0--|
--------2-----------2-----|--------2-----------1-----|
--------------------------|--------------------------|
--0-----------------------|--------------------------|
--------------1-----------|--3-----------0-----------|


  ^                                                   
  E  E  E  E  E  E  E  E     E  E  E  E  E  E  E  E   
--0--------0--1--------1--|--3--------3--------------|
-----1-----------1--------|-----1--------1--3--1-----|
--2-----2-----------2-----|--------2--2-----------2--|
--------------------------|--------------------------|
--0-----------------------|--------------------------|
--------------1-----------|--3-----------0-----------|


  E  E  E  E  E  E  E  E     E  E  E  E  E  E  E  E   
--0--------0--1--------1--|--3--------3--1-----------|
-----1-----------1--------|-----1-----------0-----0--|
--------2-----------2-----|--------2-----------1-----|
--------------------------|--------------------------|
--0-----------------------|--------------------------|
--------------1-----------|--3-----------0-----------|


  ^                                                   
  E  E  E  E  E  E  E  E     E  E  E  E  E  E  E  E   
--0--------0--1--------1--|--3--------3-----------0--|
--1--1-----------1--------|-----1--------1--3--1--1--|
--2-----2-----------2-----|--------2--2--------------|
--------------------------|--------------------------|
--0-----------------------|--------------------------|
--------------1-----------|--3-----------0-----------|


              ^                          ^            
  E  E  E  E  E  E  E  E     E  E  E  E  E  E  E  E   
--0--------0--1--------1--|--3--------3--1-----------|
-----1-----------1--------|-----1--------0--0-----0--|
--------2-----2-----2-----|--------2-----1-----1-----|
--------------------------|--------------------------|
--0-----------------------|--------------------------|
--------------1-----------|--3-----------0-----------|


  ^                                                   
  E  E  E  E  E  E  E  E     E  E  E  E  E  E  E  E   
--0--------0--1--------1--|--3--------3--1--1--3--1--|
-----1-----------1--------|-----1--------------0-----|
--2-----2-----------2-----|--------2--------2-----2--|
--------------------------|--------------------------|
--0-----------------------|--------------------------|
--------------1-----------|--3-----------0-----------|


                             ^        ^        ^      
  E  E  E  E  E  E  E  E     E  E  E  E  E  E  E  E   
--0--------0--1--------1--|--3-----------1-----------|
-----0-----------1--------|-----1-----1-----0--0--0--|
--------2-----------2-----|--------2--2--------1-----|
--------------------------|--------------------------|
--0-----------------------|--------------------------|
--------------1-----------|--3-----------0-----------|


                             ^        ^        ^      
  E  E  E  E  E  E  E  E     E  E  E  E  E  E  E  E   
-----------0--5--0--------|--3-----------1-----------|
-----0--1-----------1--0--|-----1-----1-----0--0--0--|
--2-----------------------|--------2--2--------1-----|
--------------------------|--------------------------|
--0-----------------------|--------------------------|
--------------1-----------|--3-----------0-----------|


  S E.  S E.  S E.  S E.     S E.  S E.  S E.  S E.   
--0-0---0-0---------------|--------------------------|
--1-1---1-1---1-1---1-1---|--3-3---3-3---0-0---0-0---|
--------------2-2---2-2---|--4-4---4-4---1-1---1-1---|
--------------------------|--------------------------|
--0-----------------------|--------------------------|
--------------------------|--0-----------------------|


  S E.  S E.  S E.  S E.     S E.  S E.  S E.  S E.   
--------------------------|--------------------------|
--1-1---1-1---------------|--------------0-0---3-3---|
--2-2---2-2---2-2---2-2---|--1-1---1-1---1-1---4-4---|
--------------------------|--2-2---2-2---------------|
--0-----------3-3---3-3---|--------------------------|
--------------------------|--0-----------------------|


  S E.  S E.  S E.  S E.     S E.  S E.  S E.  S E.   
--0-0---0-0---------------|--------------------------|
--1-1---1-1---1-1---1-1---|--3-3---3-3---0-0---0-0---|
--------------2-2---2-2---|--4-4---4-4---1-1---1-1---|
--------------------------|--------------------------|
--0-----------------------|--------------------------|
--------------------------|--0-----------------------|


  S E.  S E.  S E.  S E.     S E.  S E.  S E.  S E.          
--------------------------|--------------------------|------|
--1-1---1-1---------------|--------------0-0---3-3---|------|
--2-2---2-2---2-2---2-2---|--1-1---1-1---1-1---4-4---|------|
--------------------------|--2-2---2-2---------------|------|
--0-----------3-3---3-3---|--------------------------|------|
--------------------------|--0-----------------------|------|


  Q    H        E  E     Q    Q    Q.     S S    H        H         
-------0--------L-----|--1----0----L------L---|--------------------|
-------1--------L--4--|--1----L----L------L-4-|--3--------2--------|
-------2--------------|--2----L----L------L---|--1--------0--------|
--2-------------------|-----------------------|--------------------|
--0-------------------|-----------------------|--------------------|
----------------------|-----------------------|--------------------|


  W                  
-------------------||
-------------------||
--5----------------||
--4----------------||
--0----------------||
-------------------||




Duration Legend
---------------
W - whole
H - half
Q - quarter
E - 8th
S - 16th
T - 32nd
X - 64th
. - note dotted
|-n-|  - n-tuplets


Tablature Legend
----------------
L - tied note
x - dead note
g - grace note
(n) - ghost note
> - accentuded note
NH - natural harmonic
AH - artificial harmonic
TH - tapped harmonic
SH - semi harmonic
PH - pitch harmonic
h - hammer on
p - pull off
b - bend
s - slide
/ -  slide into from below or out of upwards
\ -  slide into from above or out of downwards
~ - vibrato
W - wide vibrato
tr - trill
TP - tremolo picking
T - tapping
S - slap
P - pop
< - fade in
^ - brush up
v - brush down
Login or Register to remove this ad.

1 comment on Cold Iron

Gratitude.

5

I appreciate your efforts in making Katawa Shoujo tabs. Thanks and I look forward to more of these.