Showdown (JoJo's Bizarre Adventure: Golden Wind) Guitar Tab

Title: Showdown
Composer: Yugo Kanno
Anime: JoJo's Bizarre Adventure: Golden Wind
Song: https://www.youtube.com/watch?v=jvMbe0JtAmw
Arrangement by: GomiNoUmi
Made: 31.3.2018

Drop D tuning
Rhythm 4/4

Lead Guitar

      E   E   H.               W                    E   H.            
E||------------------------|--------------------|--------------------|
B||----------11------------|--12----------------|--11----------------|
G||------12----------------|--------------------|------12------------|
D||--14--------------------|--------------------|--------------------|
A||------------------------|--------------------|--------------------|
D||------------------------|--------------------|--------------------|


  W                    E   E   H.               W                 
-------------------|------------------------|--------------------|
-------------------|----------11------------|--12----------------|
-------------------|------12----------------|--------------------|
-------------------|--14--------------------|--------------------|
-------------------|------------------------|--------------------|
-------------------|------------------------|--------------------|


   E   H.              W                    H.            S  S  S  S  
--10----------------|-------------------|-------------------------10-|
------14------------|-------------------|--12------------12-11-12----|
--------------------|-------------------|----------------------------|
--------------------|-------------------|----------------------------|
--------------------|-------------------|----------------------------|
--------------------|-------------------|----------------------------|


   E   S  H        S  S  S  E      H.            S  S  S  S  
---L---------------------------|----------------------------|
------11-11----------11-10-----|----------------------------|
---------------------------12--|--14------------14-15-16-12-|
-------------------------------|----------------------------|
-------------------------------|----------------------------|
-------------------------------|----------------------------|


   S  S  H.            E      H.            S  S  S  S  
--------------------------|-------------------------10-|
----------------------12--|--12------------12-11-12----|
---L----------------------|----------------------------|
-----14-14----------------|----------------------------|
--------------------------|----------------------------|
--------------------------|----------------------------|


   E   S  H        S  S  S  E      H         Q.      S  S     W                 
---L---------------------------|--------------------------|--------------------|
------11-11----------11-10-----|------------15------14-15-|--17----------------|
---------------------------12--|--14----------------------|--------------------|
-------------------------------|--------------------------|--------------------|
-------------------------------|--------------------------|--------------------|
-------------------------------|--------------------------|--------------------|


  Q.     H        S S    E  H.           E     E.  E.  H        S S  
----------------------|---------------------|-----------------------|
----------------------|---------------------|-----------------------|
---------9--------7-9-|--7---------------7--|--6--------------------|
--9-------------------|-----9---------------|------7--------------5-|
----------------------|---------------------|----------7--------7---|
----------------------|---------------------|-----------------------|


  H        S S S S S E.     S S S E   S S S S S Q    E   
-------------------------|------------------------------|
-------------------------|------------------------------|
-------------------------|------------------------------|
--8----------8-7-5-7-5---|----5-7-7b--5-7-5---5---------|
-------------------------|--7---------------7---7-------|
-------------------------|------------------------------|


  S S S E.  S S E  E   Q         E   Q      E   E   S E.  S S  
-----------------------------|--10---------10-----------------|
--------8----------8--10b----|---L--10b-----L--10b--8-------8-|
----7-9-----9-7-9------------|------------------------9---9---|
--9--------------------------|--------------------------------|
-----------------------------|--------------------------------|
-----------------------------|--------------------------------|


   S  S S  S  S S  S  S S  S  S S  S  S  E   
--------------------------------------------|
--11-11---10-10---11-11---10-10---11-10-----|
----------------------------------------12--|
--------------------------------------------|
--------------------------------------------|
--------------------------------------------|


   S  S  S  E   S  E   Q.      S  S     E   H.            E   
--------12-----12-----12------10-12-|--10----------------10--|
--12-12----12-----12----------------|------12----------------|
------------------------------------|------------------------|
------------------------------------|------------------------|
------------------------------------|------------------------|
------------------------------------|------------------------|


  E.   E.  H        S S     H        S  S  S S  S E.   
--9---------------------|-----------------------------|
------10--------------8-|--11----------11-10-8-10-8---|
-----------9--------9---|-----------------------------|
------------------------|-----------------------------|
------------------------|-----------------------------|
------------------------|-----------------------------|


   S  S  S  E    S  S  E    S  S  S  S   S  S  S  
----------------------------------------------17-|
--------17------17-20-20b--17----17-----17-20----|
--16-16----19b----------------19----19b----------|
-------------------------------------------------|
-------------------------------------------------|
-------------------------------------------------|


   E    S  S  S  S  H        E   
--17b--15-17-15-----------------|
----------------17-17-----------|
--------------------------------|
--------------------------------|
--------------------------------|
--------------------------------|


   S  S  S  E    S  S  S   S  S  S  S  E   S  S  
--------17-19b--17--------17----17----17--------|
-----17------------20-20b----20----20-----------|
--16--------------------------------------------|
------------------------------------------------|
------------------------------------------------|
------------------------------------------------|


   S  S S  S  S S  S  S S  S  S S  S  S  E     W                 
--18-18---17-17---18-18---17-17---18-17-15--|-------------------|
--------------------------------------------|-------------------|
--------------------------------------------|-------------------|
--------------------------------------------|-------------------|
--------------------------------------------|-------------------|
--------------------------------------------|-------------------|


  W                   W                   W                   W                 
-------------------|-------------------|-------------------|-------------------|
-------------------|-------------------|-------------------|-------------------|
-------------------|-------------------|-------------------|-------------------|
-------------------|-------------------|-------------------|-------------------|
-------------------|-------------------|-------------------|-------------------|
-------------------|-------------------|-------------------|-------------------|


  W                   W                   W                   W                 
-------------------|-------------------|-------------------|-------------------|
-------------------|-------------------|-------------------|-------------------|
-------------------|-------------------|-------------------|-------------------|
-------------------|-------------------|-------------------|-------------------|
-------------------|-------------------|-------------------|-------------------|
-------------------|-------------------|-------------------|-------------------|


   S   S  S  S   S  S  Q.       S  S  E       Q     S  S  H         E   
------12-12-----12-12---------------------|----------------------------|
--15b-------15b-------15b------17-17-20b--|---L----20-17---------------|
------------------------------------------|--------------19b-----------|
------------------------------------------|----------------------------|
------------------------------------------|----------------------------|
------------------------------------------|----------------------------|


   Q      S   S  S  S  Q.      E      S   E   S  E   S  Q    Q    S  
----------------------------------|---------------------------------|
--15------------------------------|--15--15--15-15--15-15-----------|
--14b----14b-12----12---------14--|--14b-16--16-16--16-16-----------|
----------------14----14----------|---------------------------------|
----------------------------------|---------------------------------|
----------------------------------|---------------------------------|


   H.            E      W                    H.            E   
--------------------|--------------------|--19------------20--|
--17------------18--|--18----------------|--------------------|
--------------------|--------------------|--------------------|
--------------------|--------------------|--------------------|
--------------------|--------------------|--------------------|
--------------------|--------------------|--------------------|


   W                   W                   W                  
--20----------------|-------------------|-------------------||
--------------------|-------------------|-------------------||
--------------------|-------------------|-------------------||
--------------------|-------------------|-------------------||
--------------------|-------------------|-------------------||
--------------------|-------------------|-------------------||




Rhythm Guitar

     W                   W                   W                 
E||-------------------|-------------------|-------------------|
B||-------------------|-------------------|-------------------|
G||-------------------|-------------------|-------------------|
D||-------------------|-------------------|-------------------|
A||-------------------|-------------------|-------------------|
D||-------------------|-------------------|-------------------|


  W                   W                   W                   W                 
-------------------|-------------------|-------------------|-------------------|
-------------------|-------------------|-------------------|-------------------|
-------------------|-------------------|-------------------|-------------------|
-------------------|-------------------|-------------------|-------------------|
-------------------|-------------------|-------------------|-------------------|
-------------------|-------------------|-------------------|-------------------|


  W                   E  E  S S S E  S S S S S E   
-------------------|------------------------------|
-------------------|------------------------------|
-------------------|------------------------------|
-------------------|------------------------------|
-------------------|-----------------------1------|
-------------------|--2--2--5-2-2-7--2-5-7---2-5--|


  E  E  S S S E  S S S S S E     E  E  S S S E  S S S S S E   
------------------------------|------------------------------|
------------------------------|------------------------------|
------------------------------|------------------------------|
------------------------------|------------------------------|
-------------------4-5-7------|-----------------------1------|
--2--2--5-2-2-7--2-------2-5--|--2--2--5-2-2-7--2-5-7---2-5--|


  E  E  S S S E  S S S S S E     E  E  S S S E  S S S S S E   
------------------------------|------------------------------|
------------------------------|------------------------------|
------------------------------|------------------------------|
------------------------------|------------------------------|
-------------------4-5-7------|-----------------------1------|
--2--2--5-2-2-7--2-------0-1--|--2--2--5-2-2-7--2-5-7---2-5--|


  E  E  S S S E  S S S S S E     E  E  S S S E  S S S S S E   
------------------------------|------------------------------|
------------------------------|------------------------------|
------------------------------|------------------------------|
------------------------------|------------------------------|
-------------------4-5-7------|-----------------------1------|
--2--2--5-2-2-7--2-------2-5--|--2--2--5-2-2-7--2-5-7---2-5--|


  E  E  S S S E  S S S S S E     H.           S S S S    H.           S S E   
------------------------------|-----------------------|----------------------|
------------------------------|-----------------------|----------------------|
------------------------------|-----------------------|----------------------|
------------------------------|--2----------------2-4-|--5----------------5--|
-------------------4-5-7------|--2----------------2-4-|--5----------------5--|
--2--2--5-2-2-7--2-------0-1--|--2----------------2-4-|--5----------------5--|


  H.           E     H        S S S S S E.     H.           S S S S  
------------------|-------------------------|-----------------------|
------------------|-------------------------|-----------------------|
------------------|-------------------------|-----------------------|
--7---------------|--8----------------------|--2------------2---4---|
--7---------------|--8----------8-7-5-7-5---|--2------------2---4---|
--7---------------|--8----------8-7-5-7-5---|--2------------2---4---|


  H.           S S E     H.           E     S S S S S S S S S S S S S S E   
----------------------|------------------|---------------------------------|
----------------------|------------------|---------------------------------|
----------------------|------------------|---------------------------------|
--5-------------------|--7---------------|--8-8---7-7---8-8---7-7---8-7-5--|
--5-------------------|--7---------------|---------------------------------|
--5------------0-2-5--|--7---------------|--8-8---7-7---8-8---7-7---8-7-5--|


  H.           S S S S    H.           S S E     H.           E   
-----------------------|----------------------|------------------|
-----------------------|----------------------|------------------|
-----------------------|----------------------|------------------|
--2----------------2-4-|--5----------------5--|--7---------------|
--2----------------2-4-|--5----------------5--|--7---------------|
--2----------------2-4-|--5----------------5--|--7---------------|


  H        S S S S S E.     H.           S S S S    H.           S S E   
-------------------------|-----------------------|----------------------|
-------------------------|-----------------------|----------------------|
-------------------------|-----------------------|----------------------|
--8----------------------|--2------------2---4---|--5-------------------|
--8----------8-7-5-7-5---|--2------------2---4---|--5-------------------|
--8----------8-7-5-7-5---|--2------------2---4---|--5------------0-2-5--|


  H.           E     S S S S S S S S S S S S S S E     W                 
------------------|---------------------------------|-------------------|
------------------|---------------------------------|-------------------|
------------------|---------------------------------|-------------------|
--7---------------|--8-8---7-7---8-8---7-7---8-7-5--|-------------------|
--7---------------|---------------------------------|-------------------|
--7---------------|--8-8---7-7---8-8---7-7---8-7-5--|-------------------|


  S S S S S S S S S S S S S S E     S S S S S S S S S S S S S S E   
---------------------------------|---------------------------------|
---------------------------------|---------------------------------|
---------------------------------|---------------------------------|
--------------------5------------|--------------------8---7---5----|
--7---7---7-5---7-------7---2-5--|--7---7---7-5---7-------------5--|
---------------------------------|---------------------------------|


  S S S S S S S S S S S S S S E     S S S S S S S S S S S S S S E   
---------------------------------|---------------------------------|
---------------------------------|---------------------------------|
---------------------------------|---------------------------------|
--------------------5------------|--------------------8---7---5----|
--7---7---7-5---7-------7---2-5--|--7---7---7-5---7-------------5--|
---------------------------------|---------------------------------|


  S S S S S S S S S S S S S S E     S S S S S S S S S S S S S S E   
---------------------------------|---------------------------------|
---------------------------------|---------------------------------|
---------------------------------|---------------------------------|
--------------------5------------|--------------------8---7---5----|
--7---7---7-5---7-------7---2-5--|--7---7---7-5---7-------------5--|
---------------------------------|---------------------------------|


  S S S S S S S S S S S S S S E     S S S S S S S S S S S S S S E   
---------------------------------|---------------------------------|
---------------------------------|---------------------------------|
---------------------------------|---------------------------------|
--------------------5------------|--------------------8---7---5----|
--7---7---7-5---7-------7---2-5--|--7---7---7-5---7-------------5--|
---------------------------------|---------------------------------|


  S S S S S S S S S S S S S S E     S S S S S S S S S S S S S S E   
---------------------------------|---------------------------------|
---------------------------------|---------------------------------|
---------------------------------|---------------------------------|
---------------------------------|---------------------------------|
--2-2---------2-2---------2-2-2--|--3-3---------3-3---------3-3-3--|
--2-2---------2-2---------2-2-2--|--3-3---------3-3---------3-3-3--|


                                                            |-3-| |-3-|  
  S S S S S S S S S S S S S S E     S S S S S S S S S S S S S S S S S S  
---------------------------------|--------------------------------------|
---------------------------------|--------------------------------------|
---------------------------------|--------------------------------------|
---------------------------------|--------------------------------------|
--2-2---------2-2---------2-2-2--|--3-3---------3-3---------5-3-2-0-----|
--2-2---------2-2---------2-2-2--|--3-3---------3-3-----------------5-4-|


  S S S S S S S S S S S S S S E     S S S S S S S S S S S S S S E   
---------------------------------|---------------------------------|
---------------------------------|---------------------------------|
---------------------------------|---------------------------------|
---------------------------------|---------------------------------|
--2-2---------2-2---------2-2-2--|--3-3---------3-3---------3-3-3--|
--2-2---------2-2---------2-2-2--|--3-3---------3-3---------3-3-3--|


  S S S S S S S S S S S S S S E     S S S S S S S S S S S S S S E   
---------------------------------|---------------------------------|
---------------------------------|---------------------------------|
---------------------------------|---------------------------------|
---------------------------------|---------------------------------|
--2-2---------2-2---------2-2-2--|--3-3---------3-3---------3-3-3--|
--2-2---------2-2---------2-2-2--|--3-3---------3-3---------3-3-3--|


  W                   W                  
-------------------|-------------------||
-------------------|-------------------||
-------------------|-------------------||
-------------------|-------------------||
-------------------|--2----------------||
-------------------|--2----------------||




Duration Legend
---------------
W - whole
H - half
Q - quarter
E - 8th
S - 16th
T - 32nd
X - 64th
. - note dotted
|-n-|  - n-tuplets


Tablature Legend
----------------
L - tied note
x - dead note
g - grace note
(n) - ghost note
> - accentuded note
NH - natural harmonic
AH - artificial harmonic
TH - tapped harmonic
SH - semi harmonic
PH - pitch harmonic
h - hammer on
p - pull off
b - bend
br - bendRelease
pb - preBend
pbr - preBendRelease
brb - bendReleaseBend
\n/ - tremolo bar dip
\n - tremolo bar dive
-/n - tremolo bar Release up
/n\ - tremolo bar inverted dip
/n - tremolo bar return
-\n - tremolo bar Release down
S - shift slide
s - legato slide
/ -  slide into from below or out of upwards
\ -  slide into from above or out of downwards
~ - vibrato
W - wide vibrato
tr - trill
TP - tremolo picking
T - tapping
S - slap
P - pop
< - fade in
^ - brush up
v - brush down
Login or Register to remove this ad.