Ads

Il Vento D'oro & Jolyne's Theme (JoJo's Bizarre Adventure: Golden Wind) Guitar Tab

Submitted: Aug 20, 2021 by guitarsvd (Last updated: Aug 22, 2021)

5
Average: 5 (4 votes)
Download | No audio :(
Game: JoJo's Bizarre Adventure: Golden Wind
Composer(s): Yugo Kanno
Style: Arrangement, Fingerstyle, Percussion
Series: JoJo's Bizarre Adventure

Click here for a video example.

AutoScroll: Slow | Medium | Fast
                         Il Vento D'oro (Golden Wind)                           


                                                          Cecil Chau (GuitarSVD)
Guitar



     palm mute                                                            
     >         >                            >  >                          
     E         E  S S S S S S S S S S E     E  E  S S S S S S S S S S E   
E||--------------------------------------|-------------------------------|
B||--------------------------------------|-------------------------------|
G||--------------------------------------|-------------------------------|
D||-------------------------0------------|------------------3---2---0----|
A||--2---------2--2-0---2-------2-----0--|--2--2--2-0---2-------------0--|
E||---------------------------------2----|-------------------------------|


  >  >                            >  >                          
  E  E  S S S S S S S S S S E     E  E  S S S S S S S S S S E   
-------------------------------|-------------------------------|
-------------------------------|-------------------------------|
-------------------------------|-------------------------------|
------------------0------------|------------------3---2---0----|
--2--2--2-0---2-------2-----0--|--2--2--2-0---2-------------0--|
--------------------------2----|-------------------------------|


  >  >                            >  >                          
  E  E  S S S S S S S S S S E     E  E  S S S S S S S S S S E   
-------------------------------|------------------1---0--------|
------------------3------------|--------------------------3----|
--4--4--4-2---4-------4-----2--|--4--4--4-2---4-------------2--|
------------------0-------4----|------------------3---2---0----|
--2--2--2-0---2-------2-----0--|--2--2--2-0---2-------------0--|
--------------------------2----|-------------------------------|


  >  >                            >  >                          
  E  E  S S S S S S S S S S E     E  E  S S S S Q    S  S  S S  
-------------------------------|-----------------------------0-|
------------------3------------|---------------------0h-2h-3---|
--4--4--4-2---4-------4-----2--|--4--4--4---2-4----------------|
------------------0-------4----|-------------------------------|
--2--2--2-0---2-------2-----0--|--2--2--2---0-2----------------|
--------------------------2----|-------------------------------|


  E  E  S  E  S S S S S E  E     E  E  S E  S S S S S S S  E   
--2------------------------5--|--4------------L---2--------0--|
--0-------------L---0---3-----|--0----------------------------|
------------------2-----2--3--|-----3--2----------------------|
-----0--2h-3--4-------4-x-----|--------x-4--2-----------------|
--2-----x---------------x-----|--------x--------0---0-0-1h-2--|
--------x---------------------|-------------------------------|


  E  E  S  E  E  E  S E  E     E  E  S E  E  E  S S  S  S S  
--2-------------------------|-----------------------------0-|
--0-------------------------|--0------------------0h-2h-3---|
-----------------2----2--3--|-----3--2----------------------|
-----0--2h-3--4-----4-x-----|--------x-4--2-----------------|
--2-----x-------------x-----|--------x-------0--0-0---------|
--------x-------------------|-------------------------------|


  E  E  S  E  S S S S S E  E     E  E  S S S E  E  S Q     
--2------------------------5--|--4---------5---------7----|
--0-------------L---0---3-----|--0------------------------|
------------------2-----2--3--|-----3--2------------------|
-----0--2h-3--4-------4-x-----|--------x-4---2------------|
--2-----x---------------x-----|--------x--------0--0-L----|
--------x---------------------|---------------------------|


  E  S S S  E  E  E  S E  S S    E  E  S E  E  E  S S  S  S S  
--4----2----------------------|-----------------------------0-|
------------------------------|--0------------------0h-2h-3---|
------------------2----2--3---|-----3--2----------------------|
-----0---2h-3--4-----4-x------|--------x-4--2-----------------|
--2------x-------------x------|--------x-------0--0-0---------|
---------x--------------------|-------------------------------|


  E  E  S  E  S S S S S E  E     E  E  S E  S S S S S S S  E   
--2------------------------5--|--4------------L---2--------0--|
--0-------------L---0---3-----|--0----------------0--------0--|
------------------2-----2--3--|-----3--2----------------------|
-----0--2h-3--4-------4-x-----|--------x-4--2-----------------|
--2-----x---------------x-----|--------x--------0---0-0-1h-2--|
--------x---------------------|-------------------------------|


  E  E  S  E  E  E  S E  E     E  E  S E  E  E  S S  S  S S  
--2-------------------------|-----------------------------0-|
--0-------------------------|--0------------------0h-2h-3---|
-----------------2----2--3--|-----3--2----------------------|
-----0--2h-3--4-----4-x-----|--------x-4--2-----------------|
--2-----x-------------x-----|--------x-------0--0-0---------|
--------x-------------------|-------------------------------|


  E  E  S  E  S S S S S E  E     E  E  S S S E  E  S Q     
--2------------------------5--|--4---------5---------7----|
--0-------------L---0---3-----|--0-------------------7----|
------------------2-----2--3--|-----3--2------------------|
-----0--2h-3--4-------4-x-----|--------x-4---2------------|
--2-----x---------------x-----|--------x--------0--0-L----|
--------x---------------------|---------------------------|


                                            >    >            
  E  S S S  E  E  E  S E  S S    E  E  S E  S E  E   S  S E   
--4----2----------------------|---------------------10p-9-7--|
------------------------------|--0---------------------------|
------------------2----2--3---|-----3--2---------2-----------|
-----0---2h-3--4-----4-x------|--------x-4--2----2-----------|
--2------x-------------x------|--------x---------0-----------|
---------x--------------------|------------------------------|


   E.  S E  E  S S E   S S S S    E.  S E  E  S S E   S  S E   
-------7----7--------------7---|--9--------7---------10p-9-7--|
--10---7-x--7------7--10---7---|--7---7-x--7---------------7--|
---7-----x---------7---x-x---x-|--7-----x---------7---x-------|
---7-----x-------------x-x---x-|--------x-------------x-------|
-------------------------------|------------------------------|
---7-----------7---------------|--7-----------7---------------|


   E.  S E  E  S S E  S S  S S    E.   S E  E  S S E   S S E   
-------7----7---------9---10---|--9-------------------10-9-7--|
--10---7-x--7------7-------7---|--7---10-x-------------x---7--|
---7-----x---------7--x-x----x-|--7----7-x--9------7---x------|
---7-----x------------x-x----x-|---------x--7----------x------|
-------------------------------|------------------------------|
---7-----------7---------------|--7------------7--------------|


   E.  S E  E  S S E   S S S S    E.  S E  E  S S E   S S E   
-------7----7--------------7---|--9--------7---------10-9-7--|
--10---7-x--7------7--10---7---|--7---7-x--7----------x---7--|
---7-----x---------7---x-x---x-|--7-----x---------7---x------|
---7-----x-------------x-x---x-|--------x-------------x------|
-------------------------------|-----------------------------|
---7-----------7---------------|--7-----------7--------------|


  |---3---|   |---3--|   |---3---|   |--3--|                                   
  E   E   E   E   E  E   E   E   E   E  E  E     S E  S E  S S S S E  S S S S  
--7--10--14--12--10--7--17--16--14--10--9--7--|--5-7--5-7--5-7---5-7--------0-|
----------------------------------------------|--0------0-------------0-2-3---|
--4---7--11---9---7--4--14--13--11---7--6--4--|-------------------------------|
----------------------------------------------|-------------------------------|
----------------------------------------------|-------------------------------|
----------------------------------------------|--7------7------7--------------|


  E.  S E  E  Q    E  S S    E.  S E  E  E.  S E  E     E.  S E  E  Q    E  E   
--2--------1--L---------0-|--1---0-L--------------0--|--2-----2--7--L----------|
--3---x----3--L----x--3---|--0--------3--2---3-L-----|--3---x----0--L----0--2--|
--2-----x--1--L----x------|--------x-----3-----x-----|--2-----x----------x-----|
--------x-----------------|--------x-----------x-----|--------x----------x-----|
--2-----------------------|--4-----------------------|--2----------------------|
-----------4--L-----------|--------------2-----------|-----------4--L----------|


  E.  S E  E  E.  S E  E     E.  S E  E  Q    E  S S  
------0-L---------5-L--3--|--2--------1--L---------0-|
--3-----x--3--2-----x-----|--3---x----3--L----x--3---|
--4-----x-----3-----x-----|--2-----x--1--L----x------|
--------x-----------x-----|--------x-----------------|
--4-----------------------|--2-----------------------|
--------------2-----------|-----------4--L-----------|


  E.  S E  E  E.  S E  E     E.  S E  E  Q    E  E   
--1---0-L--------------0--|--2-----2--7--L----7--9--|
--0-----x--3--2---3-L-----|--3---x----0--L----------|
--------x-----3-----------|--2-----x----------------|
--------------------------|--------x----------------|
--4-----------------------|--2----------------------|
--------------2-----------|-----------4--L----------|


   E.  S E  E  E.   S  E  E     H        H           E  E  E  E  E  E  E  E   
--10---------------10--L--6--|--7-----------------|--------------------------|
---0---8-L--7--6-------------|--7-----------------|--0-----------------------|
--------------------7--L--3--|-----------8--------|--0--0-----3--0-----3--0--|
---0-------------------------|-----------9--------|--x-----2--x-----2--x-----|
---------------8-------------|--------------------|--x--------x--------x-----|
-----------------------------|--7-----------------|--0-----------------------|


  E  E  E  E  E  E  E  E     E  E  E  E  E  E  E  E   
--------------------------|--------------------------|
--0-----------------1-----|--0-----------------------|
--0--0-----3--0--------3--|--0--0-----3--0-----3--0--|
--x-----2--x-----2--x-----|--x-----2--x-----2--x-----|
--x--------x--------x-----|--x--------x--------x-----|
--0-----------------------|--0-----------------------|


  E  E  E  E  Q    S S S S    E  E  E  E  E  E  E  E   
---------------------------|--------------------------|
--0----------------------1-|--0-----------------------|
--0--0-----------------0---|--0--0-----3--0-----3--0--|
--x-----2------------2-----|--x-----2--x-----2--x-----|
--x--------3--L----3-------|--x--------x--------x-----|
--0--------0--L------------|--0-----------------------|


  E  E  E  E  E  E  E  E     E  E  E  E  E  E  E  E   
--------------------------|--------------------------|
--0-----------------1-----|--0-----------------------|
--0--0-----3--0--------3--|--0--0-----3--0-----3--0--|
--x-----2--x-----2--x-----|--x-----2--x-----2--x-----|
--x--------x--------x-----|--x--------x--------x-----|
--0-----------------------|--0-----------------------|


  S S S S S S S S S S S S Q        E  E  E  E  E  E   Q     
------------------------7-L----|--12--------7--------12----|
----------------7-----7--------|---------0--------0--------|
--------8-----8-----8----------|------0-----0--L------0----|
------9-----9-----9------------|---------------------------|
----9-----9--------------------|---------------------------|
--7----------------------------|---0-----------------------|


   E  E  E  E  H        S S     E  E  E   Q.      Q     
--11--------7-----------7-9-|--10--------12------10----|
------------7--L------------|------0-------------------|
---------8------------------|---------0--12------11----|
------7---------------------|---0----------------------|
----------------------------|--------------------------|
---7------------------------|--------------------------|


  E  S  S E   H        S S    E.   E.   E   E.  E.  E   
--9--------------------5-7-|--8---10---11--12---7------|
-------12----10------------|------------8-------0---8--|
-----9----9---9------------|-------9----------------0--|
---------------------------|---------------------------|
--0------------------------|---------------------------|
---------------------------|--8-------------0----------|


  E.  E.  E  E  S S E  E     E  E  E  E  E  E  E  E     E  E  E  E  H         
--5---7---8--7----5----3--|--1-----------------------|--8-----------7--------|
--5-------5------------0--|--1-----------1-----------|-----------7--7--------|
------5-------------0-----|-----------2-----2--------|--------8--------------|
----------------0---------|--------3-----------3-----|-----7-----------------|
--0-----------------------|-----3-----------------3--|-----------------------|
-------------3------------|--1-----------------------|--7--------------------|


   E  E  E  E  E  E   Q        E  E  E  E  H        S S  
--12--------7--------12----|--11--------7-----------7-9-|
---------0--------0--------|------------7--L------------|
------0-----0--L------0----|---------8------------------|
---------------------------|------7---------------------|
---------------------------|----------------------------|
---0-----------------------|---7------------------------|


   E  E  E   Q.      Q        E   E   E   E   Q     E   E   
--10--------12------14----|--12----------17--------15--17--|
------0-------------------|----------14--14---L------------|
---------0--12------14----|------14------------------------|
---0----------------------|--------------------------------|
--------------------------|---0----------------------------|
--------------------------|--------------------------------|


   E.   E.   E  E.  E.  E     E  E  E  E  H            W                  
--19---18---17--7---6---5--|--7--------------------|--12----------------||
---0--------------------0--|-----------------------|---0----------------||
-------------0------0------|-----------8--L--------|---0----------------||
---------------------------|--------9--------------|--------------------||
---------------------------|-----9-----------------|--------------------||
---0------------0----------|--7--------------------|---0----------------||




Duration Legend
---------------
W - whole
H - half
Q - quarter
E - 8th
S - 16th
T - 32nd
X - 64th
. - note dotted
|-n-|  - n-tuplets


Tablature Legend
----------------
L - tied note
x - dead note
g - grace note
(n) - ghost note
> - accentuded note
NH - natural harmonic
AH - artificial harmonic
TH - tapped harmonic
SH - semi harmonic
PH - pitch harmonic
h - hammer on
p - pull off
b - bend
br - bendRelease
pb - preBend
pbr - preBendRelease
brb - bendReleaseBend
\n/ - tremolo bar dip
\n - tremolo bar dive
-/n - tremolo bar Release up
/n\ - tremolo bar inverted dip
/n - tremolo bar return
-\n - tremolo bar Release down
S - shift slide
s - legato slide
/ -  slide into from below or out of upwards
\ -  slide into from above or out of downwards
~ - vibrato
W - wide vibrato
tr - trill
TP - tremolo picking
T - tapping
S - slap
P - pop
< - fade in
^ - brush up
v - brush down
Login or Register to remove this ad.