Ads

Kanade (Isshuukan Friends) Guitar Tab

Submitted: May 06, 2014 by Basisti94

5
Average: 5 (9 votes)
Download | Listen
Game: Isshuukan Friends
Composer(s): Nobuko Toda
Style: Arrangement, Fingerstyle

AutoScroll: Slow | Medium | Fast
                          Kanade
                                
Isshuukan Friends
Sora Amamiya
Guitar arrangement by Basisti94 (Miro Laaksonen)
5.5.2014


Capo 3
Tempo ~ 72
     Q    Q    S E.  Q       Q    Q    S E.  Q       Q    Q    S E.  Q     
E||--3----1----0-1---1----|--3----1----0-1---1----|--3----1----0-1---1----|
B||-----------------------|-----------------------|-----------------------|
G||-----------------------|------------0----------|------------2----------|
D||------------3----------|-----------------------|--0--------------------|
A||-----------------------|-----------------------|-----------------------|
E||--1--------------------|--0--------------------|-----------------------|


  Q    Q    E  E  S S S S    E  E  E  E  E  E  S S E   
--3----1----0-------------|---------------------------|
---------------3--1-0---0-|--1-----1-----1-----1-3----|
--0-------------------2---|-----0-----0-----0---------|
------------------0-------|---------------------------|
--------------------------|--------3-----3-----3------|
--3---------3-------------|--1---------------------1--|


  E  E  E  E  E  E  S S E     E  E  E  E  E  E  S S E   
---------------------------|---------------------------|
--1-----1-----1-----1-3----|--1-----1-----1-----1-3----|
-----0-----0-----0---------|-----0-----0-----0---------|
--------2-----2-----2------|--0-----0-----0-----0---0--|
-----3-----3-----3---------|---------------------------|
--0---------------------0--|---------------------------|


  ^                                             ^            ^             
  Q    Q    E  E  E  E     H.           Q       E  S S E  E  E  S S E  E   
--3----1----0-----1-----|--------------------|------------------0---------|
--1------------3-----0--|--L------------1----|--3--1-1-------3----3-1--1--|
--0---------------------|--------------------|--0---------0--2------------|
--0------------------0--|--L-----------------|--2------2------------3-----|
------------------------|--------------------|--3-------------------------|
--3------------------3--|--L-----------------|---------------1------------|


  E  S S S S E  E  E  E  S S    E  S S E  S S S S Q    S S  
-----------------------------|--0--------------------------|
--0--1-3-L-0-1-----------1-3-|-----3-3----1----------------|
---------0------------2------|--------------2---0----------|
--0----------------2---------|---------3-----------------2-|
----------------0------------|--------------------3----L---|
--3--------------------------|--1-------------0------------|


                             ^            ^             
  E  E  E  E  E  E  E.  S    E  S S E  E  E  S S E  E   
--------------------------|------------------0---------|
-----1--1--3--1-----0-----|--3--1-1-------3----3-1--1--|
------------------------0-|--0---------0--2------------|
--3--------------0--------|--2------2------------3-----|
--5-----------------------|--3-------------------------|
--------------3-----------|---------------1------------|


  E  S S S S E  E  E  E  S S    E  S S E  S S S S Q    S S    E  S S S S S S  
-----------------------------|--0--------------------------|--0----0---0-1-0-|
--0--1-3-L-0-1-----------1-3-|-----3-3----1------------1-3-|-----3-----------|
---------0------------2------|--------------2---0----------|---------2-------|
--0----------------2---------|---------3-------------------|--0----------0---|
----------------0------------|--------------------3--------|-----------------|
--3--------------------------|--1-------------0------------|-----------------|


                                 ^                             
  S S S S S S S S E.  S S E.     E  S S E  S S S S S S S E  S  
--0---------0-----------------|--0--0-0------0-----5-0--------|
----------0---0-----------0---|------------3-----------3-1--1-|
--------2-------2-1---1-2-----|--2---------------2------------|
------2-----------2-----------|-------------------------------|
----2-------------------------|---------3---------------------|
--0---------------0-----------|--1-------------3-------1------|


  E  S S S S E  S S S S S S S S    E  S S E  S S E  E  E  E   
-----0--------------------------|--0--0-0----1-0-------------|
--3----1---0-1--------1-----1-3-|-------------------3--1--3--|
--------------------2---2-------|---------2------------0-----|
---------2--------2-------2-----|--0----------------0--------|
----------------0---------------|----------------------------|
--0-----------------------------|----------------3-----------|


                                   ^                             
  E  E  S S S S S S S S S S S S    E  S S E  S S S S S S S E  S  
-----0------0-1-0---------0-----|--0--0-0------0-----5-0--------|
--3-------1-------------0---1-3-|------------3-----------3-1--1-|
--------0-------------0---------|--2---------------2------------|
--------------------2-----------|-------------------------------|
--3---------------2-------------|---------3---------------------|
----------------0---------------|--1-------------3-------1------|


  E  S S E  S S S S S S E  S S    S S S S E  S S S S S S E  S S  
-----0-1----0----------------0-|--L----------0------------------|
--3-----------1---------1--3---|------1--------3-----0----------|
--------------------2----------|----2---2--------------0--------|
------------------2---2--------|--0-------------------------2-3-|
----------------0--------------|----------0--------2-----2------|
--0------4---------------------|-----------------0--------------|


  S S S S E  S S E  S E  S S S    E  E  E  E  Q    Q     
-----------------0-------------|------------------------|
----1-----1--1-3----3-1----3-1-|--L--1--0--1------------|
--------2----------------0-----|--------------0---------|
------3------------------------|------------------------|
-------------------------------|-------------------3----|
--1--------------3-------------|--1-----------0---------|


              ^            ^                  
  E  E  E  E  Q    Q       W                  
------------------------|--0----------------||
-----1--0--1------------|--1----------------||
--0-----------0---------|--0----------------||
--0-----------0----3----|--2----------------||
------------------------|--3----------------||
--------------3---------|-------------------||




Duration Legend
---------------
W - whole
H - half
Q - quarter
E - 8th
S - 16th
T - 32nd
X - 64th
. - note dotted
|-n-|  - n-tuplets


Tablature Legend
----------------
L - tied note
x - dead note
g - grace note
(n) - ghost note
> - accentuded note
NH - natural harmonic
AH - artificial harmonic
TH - tapped harmonic
SH - semi harmonic
PH - pitch harmonic
h - hammer on
p - pull off
b - bend
S - shift slide
s - legato slide
/ -  slide into from below or out of upwards
\ -  slide into from above or out of downwards
~ - vibrato
W - wide vibrato
tr - trill
TP - tremolo picking
T - tapping
S - slap
P - pop
< - fade in
^ - brush up
v - brush down
Login or Register to remove this ad.

1 comment on Kanade

Awesome Tabs!

5

Thanks for the tabs! Love this song a lot :)

PS: In bar 18, I prefer the E chord (0221--) instead of (0-21--) chord.
It feels more complete (?) But your version is also great.

Looking forward to more of your tabs :D