South Cape (Illusion of Gaia) Guitar Tab

Submitted: Apr 17, 2010 by diralark

5
Average: 5 (2 votes)
Download | Listen
Game: Illusion of Gaia
Composer(s): Yasuhiro Kawasaki
Style: Arrangement, Fingerstyle

This song is also called Town Theme

AutoScroll: Slow | Medium | Fast
                            South Cape   from Illusion of Gaia                                           

Music by Yasuhiro Kawasaki >> Sequenced by JD Harding & also by Jeff Daily >> tab by Diralark

guitar (Capo 2), tempo 110
                                                        ^                         
     Q    E  E  E  E     Q    E  E  E  E     Q    E.  S Q       Q    E  E  E  E   
E||--0----------0--1--|----------------0--|-------------3----|-------------------|
B||----------3--------|--3-------1--3-----|--1---------------|--0-------------0--|
G||-------------------|-------------------|------------------|-------------2-----|
D||-------2-----2-----|-------0-----0-----|-------2-----2----|-------0--0--0-----|
A||-------3-----3-----|-------2--2--2-----|-------3-----3----|-------2--2--2-----|
E||-------------------|-------------------|------------------|-------------------|


                                 ^                                               
  Q    E  E  E  E     Q    E  E  E  E     Q    E.  S E.  S    E  E  E  E  E  E   
-------------------|-------------------|-------------------|--------1--3--------|
--1----------0--1--|----------3--1--0--|--1----------------|-----1--3--5--5--3--|
----------2--------|--0----------------|-------------------|--2--2--------5--4--|
-------2-----2-----|-------2-----2-----|-------3-----3-----|--------------------|
-------3-----3-----|-------3-----3-----|-------3-----3-----|--3-----------------|
-------------------|-------------------|-------------------|--------------------|


                                                     ^                  ^                          
  Q    E  E  E  E     Q    E  E  E  E     Q    E.  S Q       Q    E  E  E  E     Q    E  E  E  E   
-------------0--1--|----------------0--|-------------3----|-------------------|-------------------|
--5-------3--1--3--|--3-------1--3--1--|--1---------------|--0-------------0--|--1----------0--1--|
--5----------------|--4----------------|--2---------------|--0----------2--0--|--2-------2-----2--|
-------2-----2-----|-------0--0--0-----|-------2-----2----|-------0--0--0-----|-------3-----------|
-------3-----3-----|-------2--2--2-----|-------3-----3----|-------2--2--2-----|-------3-----------|
-------------------|-------------------|------------------|-------------------|-------------------|


  ^                                       ^                               ^        
  Q    E  E  E  E     Q    E.  S E.  S    E  E  E  E  E  E     Q    E.  S S. S. S  
-------------------|-------------------|--------1--0--------|---------------------|
----------3--1--0--|--1----------------|-----1--3-----1-----|--3----------0--1h-3-|
--0----------0-----|--2----------------|--2-----------2--2--|---------------------|
--2----2-----2-----|-------3-----3-----|--3--------------3--|-------0-----0-------|
-------3-----3-----|-------3-----3-----|--3-----------------|-------2-----2-------|
-------------------|-------------------|--------------------|---------------------|


       ^                                             ^                   ^                          
  Q    Q.     E     E  E  E  E  E  E     E.  S E  E  E  E     Q    E.  S S. S. S    Q    Q.     E   
-----------------|--------------------|--0-----1--0--------|---------------------|-----------------|
--1--------------|--1--1--1-----0--1--|--------------3--1--|--3----------0--1h-3-|--1--------------|
-----------------|-----------2--------|--------------------|---------------------|-----------------|
-------2---------|--------3-----3-----|--------0--0--0-----|-------0-----0-------|-------2---------|
-------3---------|--------3-----3-----|--------2--2--2-----|-------2-----2-------|-------3---------|
-----------------|--------------------|--------------------|---------------------|-----------------|


        ^     ^                                                                    
  E.  S E.  S E.  S    Q    E  E  E.  S    E  E  E  E  E.  S    E  E  E  E  E  E   
--------------------|-------------------|--------------------|--0-----------0--1--|
--------1-----0-----|--1----------------|--------------------|-----------3-----1--|
--2-----------------|-------------------|--------------------|--------0-----0-----|
--------3-----0-----|-------3--3--3-----|-----3-----3--3-----|-----2-----2--------|
--------3-----2-----|-------3--3--3-----|-----3-----3--3-----|--3-----------------|
--------------------|-------------------|--------------------|--------------------|


                                            ^                                       
  E  E  E  E  E  E     E  E  E  E  E  E     E  E  E  E  E  E     E  E  E  E  E  E   
-----------------0--|--------------3-----|--------------------|--------------------|
--3--------1--3--0--|--1--------------1--|--0--------------0--|--1-----------0--1--|
--------0-----0-----|--------------------|-----0--0-----2-----|--------2--2--2-----|
-----0-----0--------|--------2-----2-----|--0--------0--0-----|-----2-----2--------|
--2-----------------|--0--3-----3--------|--------------------|--3-----------------|
--------------------|--------------------|--------------------|--------------------|


  E  E  E  E  E  E     E  E  E  E  E  E     E  E  E  E  E  E     Q    E  E  E  E   
--------------------|--------------------|--------1--3--------|-------------0--1--|
-----------3--1--0--|--1--------------1--|-----1--3--5--5--3--|--5-------3--1--3--|
--0-----0-----0-----|--------2-----2-----|--2--2--------5--4--|--5----------------|
-----2-----2--------|-----3-----3--------|--3-----------------|-------2-----2-----|
--3-----------------|--3-----------------|--------------------|-------3-----3-----|
--------------------|--------------------|--------------------|-------------------|


                      v          ^                           v                   v                 
  Q    E  E  E  E     Q    E.  S Q       Q    E  E  E  E     Q    E  E  E  E     Q    E  E  E  E   
----------------0--|-------------3----|-------------------|-------------------|-------------------|
--3-------1--3--1--|--1---------------|--0-------------0--|--1----------0--1--|----------3--1--0--|
--4----------------|--2---------------|--0----------2--0--|--2-------2-----2--|--0----------0-----|
-------0-----0-----|-------2-----2----|-------0--0--0-----|-------3--3--------|--2----2-----2-----|
-------2-----2-----|-------3-----3----|-------2--2--2-----|-------3-----------|-------3-----3-----|
-------------------|------------------|-------------------|-------------------|-------------------|


  v                                                                                
  Q    E.  S E.  S    E  E  E  E  E  E     E  E  E  E  E  E     E  E  E  E  E  E   
-------------------|--------1--0--1--3--|--------------------|--------1--0--1--3--|
--1----------------|-----1--3--1--3--5--|--5--3--1--0-----0--|-----1--3--1--3--5--|
--2----------------|--2--2--------------|--5--4--2--0--2--0--|--2--2--------------|
-------3-----3-----|--3-----------------|--------------3-----|--3-----------------|
-------3-----3-----|--------------------|--------------------|--------------------|
-------------------|--------------------|--------------------|--------------------|


  E  E  E  E  E  E       Q    E.  S E  S T  T    H.              Q    E.  S E.  S  
--------------------||-------------------0h-1-|--3------------|--1----------------|
--5--3--1--0-----0--||---1-------------1------|---------------|-------------------|
--5--4--2--0--2-----||*-----------------------|--0------------|-------------------|
--5--3--2--0--3--0--||*-------2-----2---------|---------------|-------3-----3-----|
--------------3-----||--------3-----3---------|---------------|-------3-----3-----|
--------------------||------------------------|---------------|-------------------|


  ^                                                                                 
  H        Q         Q    E.  S E  S T  T    E  E  E  E  E.  S    Q    E.  S E.  S  
--0--------------||------------------0h-1-|--3-----------------|--1----------------|
-----------------||--1-------------1------|--------------------|-------------------|
--0-------------*||-----------------------|--0--0-----0--0-----|-------------------|
--2-------------*||-------2-----2---------|--------------------|-------3-----3-----|
-----------------||-------3-----3---------|-----3-----3--3-----|-------3-----3-----|
-----------------||-----------------------|--------------------|-------------------|


  ^                                                                               
  H        Q       Q    E.  S E  S T  T    E  E  E  E  E.  S    Q    E.  S E.  S  
--0-------------|------------------0h-1-|--3-----------------|--1----------------|
----------------|--1-------------1------|--------------------|-------------------|
--0-------------|-----------------------|--0--0-----0--0-----|-------------------|
--2-------------|-------2-----2---------|--------------------|-------3-----3-----|
----------------|-------3-----3---------|-----3-----3--3-----|-------3-----3-----|
----------------|-----------------------|--------------------|-------------------|


  ^                  
  Q    E.  S E.  S   
--0----------------||
-------------------||
--0----------------||
--2----2-----2-----||
-------3-----------||
-------------------||




Legend
---------------
W - whole
H - half
Q - quarter
E - 8th
S - 16th
T - 32nd
. - note dotted
|-n-|  - n-tuplets
L - tied note
h - hammer on
p - pull off
b - bend
^ - brush up
v - brush down
Login or Register to remove this ad.

2 comments on South Cape

ohhh, i've been waiting for

ohhh, i've been waiting for this tab for a long time. thank you so much!

you're welcome.

Indeed it's a cute tune & it s why i tabbed it :) same about "Memories" tab.
I adored Illusion of Gaia, best Snes rpg in my opinion, also coz music is great. about guitar arrangment of the OST, "Blessing of Nature" by lonstile is really great to play + nostalgia feeling for any1 played the game -(^^)-