Ads

Memory (Ib) Guitar Tab

Submitted: Dec 19, 2012 by daniel guerra c... (Last updated: Dec 20, 2012)

5
Average: 5 (3 votes)
Download | Listen
Game: Ib
Composer(s): YASUpochi
Style: Alternate picking, Arrangement, Transcription

This song is also called Ib's Title Screen

Click here for a video example.

AutoScroll: Slow | Medium | Fast
Song : Memory (Main Theme)
Game : Ib
Cover: Daniel Guerra Caballero (original)
Video: http://youtu.be/dEl2dJ8b9EQ
Date : December, 2012
Mail : [email protected]
Blog : http://danielguerracaballero.blogspot.com
1-------------10-12----------12--12-----------12-10-------10-
2-10-10-12-13-------------12--------10-12-13-----------10----
3----------------------13------------------------------------
4-------------------14------------------------------12-------
5------------------------------------------------------------
6------------------------------------------------------------

1-10----------10-------------------------10--------12-10-
2---10-12-13----13-12-10-13--10-10-12-13----12-9-12------
3--------------------------------------------------------
4--------------------------------------------------------
5--------------------------------------------------------
6--------------------------------------------------------

1-------------10-12----------12--12-----------12-10-------10-
2-10-10-12-13-------------12-------10-12-13------------10----
3----------------------13------------------------------------
4-------------------14------------------------------12-------
5------------------------------------------------------------
6------------------------------------------------------------

1-10----------10-------------------------12---------------------12-17-
2----10-12-13----13-(12-10-13)---12-10-9----10----10---10-12-13-------
3----------------------------------------------------9----------------
4---------------------------------------------------------------------
5---------------------------------------------------------------------
6---------------------------------------------------------------------

1-----------------------------------------------------------------------------
2------------8-6-------------------------------------8-6----------------------
3-6-7-9--6-9-----9-7-9-10--7---7-10-9-7-5-7-9--9-6-9-----9-7-9-10--7---7-10-9-
4----------------------------9---------------------------------------9--------
5-----------------------------------------------------------------------------
6-----------------------------------------------------------------------------

0:41
1-12-8-10-12--8-10-12-8-10-----10-5-7-8--8-7-5-4-12----------------
2---------------------------10-------------------------------------
3------------------------------------------------------------------
4------------------------------------------------------------------
5------------------------------------------------------------------
6------------------------------------------------------------------

0:54
1-------------10-12---------12-12----------12-10----10-10----13-17-15-13-12-------12----
2-10-10-12-13------------12-------10-12-13----------------15----------------13-12-------
3---------------------13----------------------------------------------------------------
4------------------14----------------------------12-------------------------------------
5---------------------------------------------------------------------------------------
6---------------------------------------------------------------------------------------

1----------------12----------12-14-16----
2--10---10-12-14----10-12-14-------------
3-----9----------------------------------
4----------------------------------------
5----------------------------------------
6----------------------------------------

1:09
1---------------------------------------7--------------------------------------------15-
2----------10-12----------------------8-------------------------------------------12----
3-------12----------12-10-12-10-9---9--------------7-9--------9-7---------------12------
4-12-12----------12---------------10-------10-7-10-----7-9-10------7-9-10-12-9----------
5---------------------------------------------------------------------------------------
6---------------------------------------------------------------------------------------

1:22
1-----------------------13-12-10----13--12-8-----8-7-8---10-8-10---10-8-7-10-15--
2-----------------10-13------------------------6-----------------8---------------
3-9----7-9-12-10---------------------------------------7-------------------------
4---10---------------------------------------------------------------------------
5--------------------------------------------------------------------------------
6--------------------------------------------------------------------------------

1:35
1-------------10-12----------12-12----------12-10----10-10-
2-10-10-12-13-------------12-------10-12-13----------------
3----------------------13----------------------------------
4-------------------14----------------------------12-------
5----------------------------------------------------------
6----------------------------------------------------------

1--------------------------------------10--------12-10--------------
2----10-12-13-15-13-12-10--10-10-12-13----12---9--------------------
3--------------------------------------------9----------------------
4-12----------------------------------------------------------------
5-------------------------------------------------------------------
6-------------------------------------------------------------------

1-------------10-12-19-17-16-12----------12-10------10---10----------
2-10-10-12-13-------------------10-12-13---------10---------10-12-13-
3--------------------------------------------------------------------
4---------------------------------------------12---------------------
5--------------------------------------------------------------------
6--------------------------------------------------------------------

1-10----------------12----
2----13-12-10-13-12----10-
3-------------------------
4-------------------------
5-------------------------
6-------------------------

2:00
1----------10-12----------12-12----------12-10-
2-10-12-13-------------12-------10-12-13-------
3-------------------13-------------------------
4----------------14----------------------------
5----------------------------------------------
6----------------------------------------------

1-----10---------------------------------------10-------12-
2---10----10-12-13-15-13-12-10-13--10-10-12-13----12--9----
3----------------------------------------------------9-----
412-----12-------------------------------------------------
5----------------------------------------------------------
6----------------------------------------------------------

1-12-8-10-12-8-10-12-8-10--10----7-8---7--------------------------12-17-
2-----------------------------10---------10-9-(10)--10---10-12-13-------
3------------------------------------------------------9----------------
4-----------------------------------------------------------------------
5-----------------------------------------------------------------------
6-----------------------------------------------------------------------
Login or Register to remove this ad.