Ads

Hide and Seek (Ib) Guitar Tab

Submitted: Jan 04, 2013 by daniel guerra c...

2.666665
Average: 2.7 (3 votes)
Download | Listen
Game: Ib
Composer(s): YASUpochi
Style: Transcription

This song is also called Garry's Theme 2

AutoScroll: Slow | Medium | Fast
Song : Hide and Seek (Garry's Theme 2)
Game : Ib
Cover: Daniel Guerra Caballero (original)
Video: http://youtu.be/25GmE5XZg3Y
Date : December, 2012
Mail : [email protected]
Blog : http://danielguerracaballero.blogspot.com

1-3-2-0-3-0--5-0--2-3-2-0--------0----|-3-2-0-3-0--5-0--2-3-2-0--------0-------
2-0-0-0-0-0-------0-0-0-0--3-----0----|-0-0-0-0-0-------0-0-0-0--3-----0-----0-
3-x-x-x-x-x--6-6--x-x-x-x-----4--0--0-|------------6-6--------------4--0---0---
4-2-2-2-2-2-------2-2-2-2--4--4--4-4--|-2-2-2-2-2-------2-2-2-2--4--4--4--4----
5------------7-7-----------2----------|------------7-7-----------2-------------
6-------------------------------------|----------------------------------------

1-7-10-12-----x--12-----7---------------|-0-2-3-7-5--10--7---------
2----------12-10-----10-x-------10-8-10-|-------x-x------x-10-8-10-
3----------12-11-----x--x---------------|-------x-x------x---------
4----------10-12-----x--x---------------|-------x-0------x---------
5--------------------7--x---------------|-------5-------(7)---------
6-------------x-------------------------|----------------0----------

1-7-10-12--12-14-10-15-14-12---7---10----7---5---3---------0------
2------------------------------x------10---8---7---7--2-5--0------
3----------12-14----16--------(7)--------------------------0------
4----------10-12----14---------x---------------------------2------
5-----------------------------(7)--------------------------2------
6------------------------------x---------------------------0------

1-3-2-0-3-0--5-0--2-3-2-0--------0----|-3-2-0-3-0--5-0--2-3-2-0--------0-------
2-0-0-0-0-0-------0-0-0-0--3-----0----|-0-0-0-0-0-------0-0-0-0--3-----0-----0-
3-x-x-x-x-x--6-6--x-x-x-x-----4--0--0-|------------6-6--------------4--0---0---
4-2-2-2-2-2-------2-2-2-2--4--4--4-4--|-2-2-2-2-2-------2-2-2-2--4--4--4--4----
5------------7-7-----------2----------|------------7-7-----------2-------------
6-------------------------------------|----------------------------------------
Login or Register to remove this ad.

1 comment on Hide and Seek

ehh

you have the beginning chords sort of correct, but the rest just doesn't sound like the original song at all