Doll (Ib) Guitar Tab

Submitted: May 23, 2012 by Hakoria (Last updated: May 23, 2012)

5
Average: 5 (7 votes)
Download | Listen
Game: Ib
Composer(s): YASUpochi
Style: Fingerstyle, Natural harmonics, Tapped harmonics

This song is also called Marry

AutoScroll: Slow | Medium | Fast
                                     doll                                       
                                      Ib


                                                               Tabbed by Hakoria

As an added note: T.H means right hand harmonics. 
You sometimes will do rh harmonics for open 12th/7th 
frets (while the string is 0 ) because your right hand will 
be busy at the top of the neck. It is still arranged in a 
simple fashion!
In addition, the bass notes have to ring: this is in the form of a valse/waltz.
The slow-downs and tempo changes are not included, 
please refer to the ost's version when you've learned it 
by heart to finalize your performance.

This song comes from the April 2012 (I think) rpg 
maker 2003 horror game Ib.


     Q    Q.     S. T     Q    Q    Q       Q    Q    Q       Q    Q    Q     
E||--------------------|-----------------|--5--------------|--4--------------|
B||-------5------8p-6h-|--5--------------|-------5----5----|-------3----3----|
G||--------------------|-------5----5----|-------5----5----|-------4----4----|
D||--------------------|-------7----7----|-----------------|-----------------|
A||--------------------|--0--------------|-----------------|--2--------------|
E||--------------------|-----------------|--0--------------|-----------------|


  Q    Q    Q       Q    Q    Q       Q    Q    Q       Q    Q    Q     
-----------------|--0--------------|-----------------|-----------------|
-------3----6----|-------3----3----|-------0----3----|--1--------------|
-----------------|-------4----4----|-----------------|-------2----2----|
-----------------|--6--------------|-----------------|-------2----2----|
-----------------|-----------------|-----------------|--0--------------|
--0--------------|-----------------|--0--------------|-----------------|


  Q    Q.     S. T     Q    Q    Q       Q    Q    Q       Q    Q    Q     
--------------------|-----------------|--5--------------|--3--------------|
-------5------8p-6h-|--5--------------|-------5----5----|-------3----3----|
--------------------|-------5----5----|-------5----5----|-------4----4----|
--------------------|-------7----7----|-----------------|-----------------|
--------------------|--0--------------|-----------------|--2--------------|
--0-----------------|-----------------|--0--------------|-----------------|


  E  E  E  E  E  E     Q    E  E  Q       E  E  E  E  E  E     Q    E  E  Q     
--------------7-----|----------7-------|--------------7-----|----------7-------|
-----------8-----8--|--7----------7----|-----------8-----7--|--6----------5----|
--------9-----------|-------8----------|--------9-----------|-------7----------|
-----9--------------|-------9----------|-----9--------------|-------6----------|
--------------------|------------------|--------------------|------------------|
--7-----------------|--7---------------|--7-----------------|--0---------------|


  Q    Q.     S. T     Q    Q    Q       Q    Q    Q       Q    Q    Q     
--------------------|-----------------|--5--------------|--4--------------|
-------5------8p-6h-|--5--------------|-------5----5----|-------3----3----|
--------------------|-------5----5----|-------5----5----|-------4----4----|
--------------------|-------7----7----|-----------------|-----------------|
--------------------|--0--------------|-----------------|--2--------------|
--0-----------------|-----------------|--0--------------|-----------------|


  Q    Q    Q       Q    Q    Q       Q    Q    Q       Q    Q    Q     
-----------------|--0--------------|-----------------|-----------------|
-------3----6----|-------3----3----|-------0----3----|--1--------------|
-----------------|-------4----4----|-----------------|-------2----2----|
-----------------|-----------------|-----------------|-------2----2----|
-----------------|-----------------|-----------------|--0--------------|
--0--------------|--4--------------|--0--------------|-----------------|


  Q    Q    Q       Q    E  E  Q       Q    Q    Q       Q    E  E  Q     
-----------------|----------0--1----|--L--------------|-------------0----|
--2--------------|--3---------------|-------0----3----|--1-------3-------|
-------2----2----|-------2----------|-----------------|-------2----------|
-------2----2----|-------2----------|-----------------|-------2----------|
-----------------|------------------|-----------------|--0---------------|
--3--------------|--1---------------|--0--------------|------------------|


  Q    Q    Q       Q    E  E  Q       Q    Q    Q       Q    Q    Q     
--L--------------|------------------|-----------------|-----------------|
------------1----|--0-------1--3----|-----------------|-----------------|
-------2---------|-------1----------|------------4----|--2---------L----|
-----------------|-------0----------|-------2---------|-------2---------|
-----------------|--2---------------|-----------------|------------3----|
--0--------------|------------------|--0--------------|--5--------------|


                    >                    >                   >               
  H.                Q    Q    Q          Q    Q    Q         Q    Q    Q     
---------------|-------------------|--------------------|-------------------|
---------------|-------------------|--------------------|---------3----3----|
---------------|---------5----5----|----------5----5----|---------4----4----|
---------------|---------7----7----|----------7----7----|-------------------|
---------------|--<>7--------------|--<>12--------------|-------------------|
--5------------|-------------------|--------------------|--<>7--------------|


     >                   TH          TH        TH          TH    
     Q    Q    Q         Q    Q      Q         Q    Q      Q     
--------------------|---------------------|---------------------|
----------3----3----|---------0------0----|---------0------0----|
----------4----4----|---------1------1----|---------1------1----|
--------------------|--<>3----------------|--<>2----------------|
--------------------|--------------<>2----|--------------<>2----|
--<>12--------------|---------------------|---------------------|


    TH                   >                   >               
    Q    Q    Q          Q    Q    Q         Q    Q    Q     
-------------------|--------------------|-------------------|
---------1----1----|----------1----1----|---------8----8----|
---------2----2----|----------2----2----|---------7----7----|
-------------------|--------------------|--<>7--------------|
--<>3--------------|--<>12--------------|-------------------|
-------------------|--------------------|-------------------|


     >                   >                    >               
     Q    Q    Q         Q    Q    Q          Q    Q    Q     
--------------------|-------------------|--------------------|
----------8----8----|---------6----6----|----------6----6----|
----------7----7----|---------7----7----|----------7----7----|
--------------------|--<>7--------------|--<>12--------------|
--<>12--------------|-------------------|--------------------|
--------------------|-------------------|--------------------|


    TH                  TH                  TH                  TH              
    Q    Q    Q         Q    Q    Q         Q    Q    Q         Q    Q    Q     
-------------------|-------------------|-------------------|-------------------|
---------0----0----|---------0----0----|---------5----5----|---------5----5----|
---------0----0----|---------0----0----|---------5----5----|---------5----5----|
--<>5--------------|-------------------|--<>5--------------|-------------------|
-------------------|-------------------|-------------------|--<>3--------------|
-------------------|--<>3--------------|-------------------|-------------------|


     >                   >                   >                 
     Q    Q    Q         Q    Q    Q         Q    Q    E   E   
--------------------|-------------------|---------------------|
----------3----3----|---------3----3----|---------1----1---L--|
----------4----4----|---------4----4----|---------2----2p--0--|
--<>12--------------|-------------------|---------------------|
--------------------|-------------------|--<>7----------------|
--------------------|--<>7--------------|---------------------|


     >                     TH                  TH              
     Q    Q    E   E       Q    Q    Q         Q    Q    Q     
----------------------|-------------------|-------------------|
----------1----1---L--|---------0----0----|---------3----3----|
----------2----2p--0--|---------1----1----|---------4----4----|
----------------------|-------------------|-------------------|
----------------------|-------------------|-------------------|
--<>12----------------|--<>2--------------|--<>4--------------|


     >                                                                        
     Q    Q    Q       E  H        E     Q    Q.     S. T     Q    Q    Q     
--------------------|-----------------|--------------------|-----------------|
----------1----1----|--L--1--------L--|-------5------8p-6h-|--5--------------|
----------2----2----|--L--2--------L--|--------------------|-------5----5----|
----------2----2----|--L--2--------L--|--------------------|-------7----7----|
--<>12--------------|-----------------|--------------------|--0--------------|
--------------------|-----------------|--------------------|-----------------|


  Q    Q    Q       Q    Q    Q       Q    Q    Q       Q    Q    Q     
--5--------------|--4--------------|-----------------|--0--------------|
-------5----5----|-------3----3----|-------3----6----|-------3----3----|
-------5----5----|-------4----4----|-----------------|-------4----4----|
-----------------|-----------------|-----------------|--6--------------|
-----------------|--2--------------|-----------------|-----------------|
--0--------------|-----------------|--0--------------|-----------------|


  Q    Q    Q       Q    Q    Q       Q    Q.     S. T     Q    Q    Q     
-----------------|-----------------|--------------------|-----------------|
-------0----3----|--1--------------|-------5------8p-6h-|--5--------------|
-----------------|-------2----2----|--------------------|-------5----5----|
-----------------|-------2----2----|--------------------|-------7----7----|
-----------------|--0--------------|--------------------|--0--------------|
--0--------------|-----------------|--0-----------------|-----------------|


  Q    Q    Q       Q    Q    Q       E  E  E  E  E  E     Q    E  E  Q     
--5--------------|--3--------------|--------------7-----|----------7-------|
-------5----5----|-------3----3----|-----------8-----8--|--7----------7----|
-------5----5----|-------4----4----|--------9-----------|-------8----------|
-----------------|-----------------|-----9--------------|-------9----------|
-----------------|--2--------------|--------------------|------------------|
--0--------------|-----------------|--7-----------------|--7---------------|


  E  E  E  E  E  E     Q    E  E  Q       Q    Q.     S. T     Q    Q    Q     
--------------7-----|----------7-------|--------------------|-----------------|
-----------8-----7--|--6----------5----|-------5------8p-6h-|--5--------------|
--------9-----------|-------7----------|--------------------|-------5----5----|
-----9--------------|-------6----------|--------------------|-------7----7----|
--------------------|------------------|--------------------|--0--------------|
--7-----------------|--0---------------|--0-----------------|-----------------|


  Q    Q    Q       Q    Q    Q       Q    Q    Q       Q    Q    Q     
--5--------------|--4--------------|-----------------|--0--------------|
-------5----5----|-------3----3----|-------3----6----|-------3----3----|
-------5----5----|-------4----4----|-----------------|-------4----4----|
-----------------|-----------------|-----------------|-----------------|
-----------------|--2--------------|-----------------|-----------------|
--0--------------|-----------------|--0--------------|--4--------------|


  Q    Q    Q       Q    Q    Q       Q    Q    Q       Q    E  E  Q     
-----------------|-----------------|-----------------|----------0--1----|
-------0----3----|--1--------------|--2--------------|--3---------------|
-----------------|-------2----2----|-------2----2----|-------2----------|
-----------------|-------2----2----|-------2----2----|-------2----------|
-----------------|--0--------------|-----------------|------------------|
--0--------------|-----------------|--3--------------|--1---------------|


  Q    Q    Q       Q    E  E  Q       Q    Q    Q       Q    E  E  Q     
--L--------------|-------------0----|--L--------------|------------------|
-------0----3----|--1-------3-------|------------1----|--0-------1--3----|
-----------------|-------2----------|-------2---------|-------1----------|
-----------------|-------2----------|-----------------|-------0----------|
-----------------|--0---------------|-----------------|--2---------------|
--0--------------|------------------|--0--------------|------------------|


                                                  |-3-|                   
  Q    Q    Q       Q    Q    Q       H        E  S S S    H.             
-----------------|-----------------|------------------5-|--L------------||
-----------------|-----------------|----------------5---|--L------------||
------------4----|--2---------L----|--------------5-----|--L------------||
-------2---------|-------2---------|--------------------|---------------||
-----------------|------------3----|--------------------|---------------||
--0--------------|--5--------------|--5-----------------|--L------------||


Duration Legend
---------------
W - whole
H - half
Q - quarter
E - 8th
S - 16th
T - 32nd
X - 64th
. - note dotted
|-n-|  - n-tuplets


Tablature Legend
----------------
L - tied note
(n) - ghost note
> - accentuded note
NH - natural harmonic
TH - tapped harmonic
h - hammer on
p - pull off
Login or Register to remove this ad.

4 comments on Doll

I knew I recognized this from

I knew I recognized this from somewhere, it's El Sueño de la Muñequita by Augustin Barrios. Good job on the transcription

Thank you. Never heard of

Thank you. Never heard of Barrios, it seems like this one's main difference with the original is that the harmonics part is shorter/not-repeated :]

This is the best tab ever!

This is the best tab ever!

Very awesome tab man!

Very awesome tab man!