Ads

Kurapika's Theme (Hunter X Hunter) Guitar Tab

Submitted: Feb 10, 2012 by Max_depa

5
Average: 5 (3 votes)
Download | Listen
Game: Hunter X Hunter
Composer(s): Toshihiko Sahashi
Style: Arrangement, Fingerstyle

AutoScroll: Slow | Medium | Fast
Kurapika's Theme - Hunter x Hunter
Arranged by: Max_depa
Composed by: Toshihiko Sahashi



           ^       ^           ^        ^         ^        ^         
     E     Q    E  E.  S E     E.  S E  Q.        E.  S E  E  E  E   
E||-----|--0----0--2---3-5--|--7---8-7--3------|--5---7-5--2-----2--|
B||--0--|--0-------3--------|--5--------0------|-----------3--3-----|
G||-----|--0-------2--------|--0--------0------|--2--------2--------|
D||-----|--2-------4--------|------------------|--4--------4--------|
A||-----|--2-------5--------|-----------3------|--5--------2--------|
E||-----|-------------------|------------------|--------------------|


  ^      ^          ^       ^           ^        ^         ^        ^         
  Q.     Q    E     Q    E  E.  S E     E.  S E  Q.        E.  S E  E  E  E   
--0--------------|--0----0--2---3-5--|--7---8-7--3------|--5---7-5--2-----2--|
--0------0----0--|--0-------3--------|-----------0------|-----------3--3-----|
--0------2-------|--0-------2--------|--7--------0------|--2--------2--------|
--2------4-------|--2-------4--------|--5---------------|--4--------4--------|
---------2-------|--2-------5--------|-----------3------|--5--------2--------|
-----------------|-------------------|------------------|--------------------|


  ^        ^         ^       ^           ^        ^         ^        ^         
  E  E  E  Q.        Q    E  E.  S E     E.  S E  Q.        E.  S E  E  E  E   
--0---------------|--0----0--2---3-5--|--7---8-7--3------|--5---7-5--2-----2--|
--0-----0--0------|--0-------3--------|-----------0------|-----------3--3-----|
--0--2-----1------|--0-------2--------|--7--------0------|--2--------2--------|
--2--------2------|--2-------4--------|--5---------------|--4--------4--------|
------------------|--2-------5--------|-----------3------|--5--------2--------|
------------------|-------------------|------------------|--------------------|


  ^      ^         ^       ^           ^        ^         ^        ^         
  Q.     Q.        Q    E  E.  S E     E.  S E  Q.        E.  S E  E  E  E   
--0-------------|--0----0--2---3-5--|--7---8-7--3------|--5---7-5--2-----2--|
--0------0------|--0-------3--------|-----------0------|--3--------3--3-----|
--0------2------|--0-------2--------|--7--------0------|--2--------2--------|
--2------4------|--2-------4--------|--5---------------|--4--------4--------|
---------2------|--2-------5--------|--7--------3------|--5--------2--------|
----------------|-------------------|------------------|--------------------|


  E  E  E  Q     E      Q     E   E.   S  E     E.  S E  Q    E   
--0-----------------|--12----12--10------10--|--7---8-7--5-------|
--------0-------12--|-----------------10-----|----------------5--|
-----2-----1--------|---0--------------------|--0--------2-------|
--2--------2--------|-------------7----------|--0----------------|
--------------------|------------------------|-----------4-------|
--------------------|---8--------------------|-------------------|


  Q    E  E.  S E     Q    E  Q    E      Q     E   E.   S  E   
--3----3--2---0----|--0----7--7----7--|--12----12--10------10--|
--0-------------3--|------------------|-----------------10-----|
----------2--------|--0---------------|---0--------------------|
----------0--------|--2-------4-------|-------------7----------|
--3----------------|----------5-------|------------------------|
-------------------|------------------|---8--------------------|


                                            ^      ^          ^       ^         
  E.  S E  E  E  E     E.  S E  E  E  E     Q.     Q    E     Q    E  E.  S E   
--7---8-7--5-----2--|--3---5-3--2--0-----|--0------7-------|--0----0--2---3-5--|
--------------5-----|-----------------3--|--0------0----0--|--0-------3--------|
--0--------2--------|--------------------|--2--------------|--0-------2--------|
--0-----------------|-----------0--------|--2--------------|--2-------4--------|
-----------4--------|--3-----------------|---------6-------|--2-------5--------|
--------------------|--------------------|-----------------|-------------------|


  ^        ^         ^        ^           ^               ^       ^         
  E.  S E  Q.        E.  S E  E  E  E     H.              Q    E  E.  S E   
--7---8-7--3------|--5---7-5--2-----2--|--0------------|--0----0--2---3-5--|
--5--------0------|-----------3--3-----|--0------------|--0-------3--------|
--0--------0------|--2--------2--------|--0------------|--0-------2--------|
------------------|--4--------4--------|--2------------|--2-------4--------|
-----------3------|--5--------2--------|---------------|--2-------5--------|
------------------|--------------------|---------------|-------------------|


  ^        ^         ^        ^           ^               ^       ^         
  E.  S E  Q.        E.  S E  E  E  E     H.              Q    E  E.  S E   
--7---8-7--3------|--5---7-5--2-----2--|--0------------|--0----0--2---3-5--|
--5--------0------|-----------3--3-----|--0------------|--0-------3--------|
--0--------0------|--2--------2--------|--0------------|--0-------2--------|
------------------|--4--------4--------|--2------------|--2-------4--------|
-----------3------|--5--------2--------|---------------|--2-------5--------|
------------------|--------------------|---------------|-------------------|


  ^        ^         ^        ^           ^      ^          ^       ^         
  E.  S E  Q.        E.  S E  E  E  E     Q.     Q    E     Q    E  E.  S E   
--7---8-7--3------|--5---7-5--2-----2--|--0--------------|--0----0--2---3-5--|
--5--------0------|-----------3--3-----|--0------0----0--|--0-------3--------|
--0--------0------|--2--------2--------|--0------2-------|--0-------2--------|
------------------|--4--------4--------|--2------4-------|--2-------4--------|
-----------3------|--5--------2--------|---------2-------|--2-------5--------|
------------------|--------------------|-----------------|-------------------|


  ^        ^         ^        ^                                 ^              
  E.  S E  Q.        E.  S E  E  E  E     E  E  E  E  E  E      H.             
--7---8-7--3------|--5---7-5--2-----2--|--0-----------------|--12------------||
--5--------0------|-----------3--3-----|--------------------|--12------------||
--0--------0------|--2--------2--------|--0-----------------|--13------------||
------------------|--4--------4--------|-----------2--------|----------------||
-----------3------|--5--------2--------|-----0--2-----2--0--|----------------||
------------------|--------------------|--0-----------------|---0------------||




Duration Legend
---------------
W - whole
H - half
Q - quarter
E - 8th
S - 16th
T - 32nd
X - 64th
. - note dotted
|-n-|  - n-tuplets


Tablature Legend
----------------
L - tied note
x - dead note
g - grace note
(n) - ghost note
> - accentuded note
NH - natural harmonic
AH - artificial harmonic
TH - tapped harmonic
SH - semi harmonic
PH - pitch harmonic
h - hammer on
p - pull off
b - bend
br - bendRelease
pb - preBend
pbr - preBendRelease
brb - bendReleaseBend
\n/ - tremolo bar dip
\n - tremolo bar dive
-/n - tremolo bar Release up
/n\ - tremolo bar inverted dip
/n - tremolo bar return
-\n - tremolo bar Release down
S - shift slide
s - legato slide
/ -  slide into from below or out of upwards
\ -  slide into from above or out of downwards
~ - vibrato
W - wide vibrato
tr - trill
TP - tremolo picking
T - tapping
S - slap
P - pop
< - fade in
^ - brush up
v - brush down
Login or Register to remove this ad.

2 comments on Kurapika's Theme

Awesome

5

Really good job man havent posted in a while cuz their seemed to be a problem with commenting. U derserve the kudos man >.< luv this anime

thanks!

thanks!