Login or Register to remove this ad.

Departure! Opening (Hunter X Hunter) Guitar Tab

Submitted: Mar 13, 2016 by FocusShallNotFail (Last updated: Mar 13, 2016)

5
Average: 5 (2 votes)
Download | Listen
Game: Hunter X Hunter
Composer(s): Toshihiko Sahashi
Style: Arrangement, Fingerstyle

Click here for a video example.

AutoScroll: Slow | Medium | Fast
Title: Hunter X Hunter (2011) Opening
Artist: Galneryus
Arrangement: Eduardo Barelli


Track 1: Departure! by Galneryus

E|-----------------------|------------------------------|---------------------------------|
B|-------6---------------|-6-------6---6------------6---|-----------------6---------------|
G|-----------8---7---8---|-7-------------------7--------|---------7-----------8---7---8---|
D|-----------------------|-8---8------------------------|-----8-------8-------------------|
A|-----------------------|------------------------------|---------------------------------|
E|-----------------------|-6---------------6------------|-6---------------6---------------|


E|------------------------------|---------------------------------|-3-------3---3------------3---|
B|-7-------7---7------------7---|-----------------7---------------|-3-------------------3--------|
G|-7-------------------7--------|---------7-----------8---7---8---|-3---3------------------------|
D|-7---7------------------------|-----7-------7-------------------|------------------------------|
A|-5---------------5------------|-5---------------5---------------|------------------------------|
E|------------------------------|---------------------------------|-3---------------3------------|


E|----------------------3----|-4-----6-----6----|-6---6---6---6---6---6---6------------|
B|---------3-------6---------|-1-----------6----|-6---6---6---6---6---6---6---6--8--9--|
G|-----3-------3-------------|-1-----------7----|-7---7---7---7---7---7---7------------|
D|---------------------------|-------------8----|-8---8---8---8---8---8---8------------|
A|---------------------------|-------------8----|-8---8---8---8---8---8---8------------|
E|-3---------------3---------|-1-----------6----|-6---6---6---6---6---6---6------------|


E|-6-------6----------------------|-----------------------------------|-6-------6--------------------|
B|-----6-------9------------8--9--|-8---9---8---6------------6--8--9--|-----6-------9------------6---|
G|--------------------------------|-----------------------------------|----------------------8-------|
D|--------------------------------|-----------------------------------|------------------------------|
A|--------------------------------|-----------------------------------|------------------------------|
E|-6-------6-------6----6---------|-6-------6-------6----6------------|-6-------6-------6----6-------|


E|-2---4---6---8---------|---------------------------|---------------------------|
B|-----------------------|-6----------------6----4---|-----------------6----4----|
G|-----------------------|-6-------------------------|---------5-----------------|
D|-----------------------|-6----6---6----------------|-----6-------6-------------|
A|-----------------------|-4------------4------------|-3---------------3---------|
E|-2-----------4---------|---------------------------|---------------------------|


E|---------------------------|---------------------------|---------------------------------|
B|-2----------------2--------|---------------------------|-----2-------2-------------------|
G|-3----3---3------------4---|-------------6----6---6----|-3-------5-----------3---3---1---|
D|-3-------------------------|-6---6-------6----6---6----|-4---------------------------3---|
A|-1------------1------------|-6---6---x---4----4---4----|---------------------------------|
E|---------------------------|-4---4---x-----------------|-2---2---2---2---2---2---2---1---|


E|---------------------------------|---------------------------------|---------------------------|
B|-----2---2-----------------------|-----2---1---2-----------2---6---|-----4---4-----------------|
G|---------------------------------|-3-------------------3-----------|-----5---5-------5----6----|
D|---------------------------------|-1---------------5---------------|---------6-----------------|
A|---------------------------------|---------------------------------|---------x-----------------|
E|-1---1---1---1---1---1---1---1---|---------------------------------|-4-------x---4-------------|


E|-4-----------4-----------6---4---|-------------4---------------4---|-2----1-------------------1---|
B|-----2-----------2---------------|---------2---------------2-------|-1--------4-------2---4-------|
G|---------3-----------3-----------|-----3---------------3-----------|-2----------------------------|
D|---------------------------------|---------------------------------|------------------------------|
A|---------------------------------|---------------------------------|------------------------------|
E|-2-------2-------2-------2-------|-2-------2-------2-------2-------|-1----1-------1-------1-------|


E|---------------------------|-4-----------4-----------6---4---|-------------4-------------------|
B|-----2---1---2---1----2----|-----2-----------2---------------|---------2---------------2-------|
G|-----3---------------------|---------3-----------3-----------|-----3---------------3-------3---|
D|---------------------------|---------------------------------|---------------------------------|
A|-1-------1-------1----1----|---------------------------------|---------------------------------|
E|---------------------------|-2-------2-------2-------2-------|-2-------2-------2-------2-------|


E|------------------------------|--------------------------1---|-1----1-----1---1--1--1---|
B|-----1---2---1----2---4---2---|-2---4---6---4----6---7---1---|-1----1-----1---1--1--1---|
G|-3----------------------------|--------------------------2---|-2----2-----2---2--2--2---|
D|-1-----------3------------4---|-4-----------6------------3---|-3----3-----3---3--3--3---|
A|------------------------------|--------------------------3---|-3----3-----3---3--3--3---|
E|------------------------------|--------------------------1---|-1----1-----1---1--1--1---|


E|-1-------------------------------|---------------------------------|---------------------------------|
B|-1---------------6---------------|-6-------6---6---------------6---|-----------------6---------------|
G|-2-------------------8---7---8---|-7-------------------7-----------|---------7-----------8---7---8---|
D|-3-------------------------------|-8---8---------------------------|-----8-------8-------------------|
A|-3---x---x-----------------------|---------------------------------|---------------------------------|
E|-1---x---x-----------------------|-6-------6-------6-------6-------|-6-------6-------6-------6-------|


E|---------------------------------|---------------------------------|-3-------3---3---------------3---|
B|-7-------7---7---------------7---|-----------------7---------------|-3-------------------3-----------|
G|-7-------------------7-----------|---------7-----------8---7---8---|-3---3---------------------------|
D|-7---7---------------------------|-----7-------7-------------------|---------------------------------|
A|-5-------5-------5-------5-------|-5-------5-------5-------5-------|---------------------------------|
E|---------------------------------|---------------------------------|-3-------3-------3-------3-------|


E|----------------------3----|-4-----6-----6----|-----------6------------|-6-------6---6---------------8---|
B|---------3-------6---------|-1-----------6----|------6---------8---10--|---------------------10----------|
G|-----3-------3-------------|-1-----------7----|-7----------------------|---------------------------------|
D|---------------------------|-------------8----|------------------------|---------------------------------|
A|---------------------------|-------------8----|------------------------|-6---6---6---6---6---6---6---6---|
E|-3-------3-------3---------|-1-----------6----|------------------------|---------------------------------|


E|---------------------------------|---------------------8-----------|---------------------------------|
B|---------11------10------11------|-10------8-------------------12--|-----------------8---------------|
G|---------------------------------|-------------10------------------|-------------7-------7-----------|
D|---------------------------------|---------------------------------|---------9---------------9-------|
A|-7---7---7---7---7---7---7---7---|-8---8---8---8---8---8---8---8---|-10--10----------------------10--|
E|---------------------------------|---------------------------------|---------------------------------|


E|------------------3----6---|-6----6---6---5----6---6---|-6----------------------------|
B|-4----3---4------------6---|-6-------------------------|-4-------4--------------------|
G|-----------------------5---|-5-------------------------|-----3-------6------------3---|
D|--------------1--------3---|-3-------------------------|------------------3---6-------|
A|-3-------------------------|---------------------------|------------------------------|
E|---------------------------|---------------------------|------------------------------|


E|---------------------------|---------------------------|
B|-----------------------9---|-9---8----6----8-----------|
G|------------------6----8---|-------------------8---8---|
D|-4---3---4---6-------------|---------------------------|
A|---------------------------|---------------------------|
E|---------------------------|---------------------------|



Login or Register to remove this ad.

2 comments on Departure! Opening

this one translates really

5

this one translates really nicely to capo 1, good job :)

Muito bom!

Gostei bastante ;)

HXH is my favorite anime! Well done! Continue contribuindo ;)