Main Theme (Howl's Moving Castle) Ukulele Tab

Submitted: Aug 10, 2015 by CandyCane52

4
Average: 4 (2 votes)
Download | Listen
Game: Howl's Moving Castle
Composer(s): Joe Hisaishi
Style: Transcription

This song is also called Merry-Go-Round of Life

AutoScroll: Slow | Medium | Fast
Howl's Moving Castle Theme
Howl's Moving Castle (Anime)
Joe Hisaishi
CandyCane52
10/08/2015
 :00
G-------------------------------------------
C-------------------------------------------
E-------------------------------------5p3p2-
A-5-6-5-6-5-6-3-5-3-5-3-5-1-3-1-3-1-3-------

G--------------------------0------0--------------------------
C-2-------3----2-----2---------------------------------------
E----3----3----2------------------------6-------8--------6---
A-------1-5--5-3-1-0-1-0-1---1------1-5-10--10-10--8--6--8---
 :28
G-----------------------------------------0---
C-------------------------------------2-0---2-
E---------------------5----0----5-----3-------
A-0-5-8-12--10-8-7-8-10--8-7--5-3-1-3-5-3---0-
 :42
G--------------------------0-0-0-0-0-0-0-0-0-
C----------------------3-2---7-7---7-7---7-7-
E------------------3-2-------6-6---6-6---6-6-
A-0h3p1-0--0h3p1-0-----------5-5---5-5---5-5-
 :52
G----------------------0---------------------
C-2-----3----2-2-2-2-------------------------
E---3---3------------------------------------
A-----1-5--5-3-1-0-1-----1-5-10--10-10-8-6-8-

G-------------------------------------0-0-0-------------------
C-------------------------------------0-0-0----2--------------
E-6-----------------------------------0-0-0------2-3----------
A---5-8-12--10-8-7-8-10--8-7--5-3-1-3-5-3---0--------0-5-9-12-
 1:12
G-0--------0-0-0-0-0--0-----------------------------------
C-------2--2-2-2-2-2--------------------------5--2--------
E-------3-------------------10--10-10---------5--1-----10-
A----1--5--5-3-1-0-1----1-5-10--10-10-12--8-6-8--0-5-8-12-

G---------------------------------------------
C----------------------------2-------1------2-
E--------------5-------------5-------0------5-
A-10--8p7p6h7-10--8--7p5p4h5-5--3p1--0--2h4-5-
 1:35
G--------------------------------------------------------------------------------------
C--------------------2---------------5--------2-0--------------------------------------
E--------------------1--1------------5------1--------------------------------5h6p5p4-5-
A-5-6--5-3-1-0-1-3-5------6--5-3-1-3-5--1-0--------5--5h7p5p4-5-8-7-5-4--7-0-----------

G------------------------------10-----------------------
C------------------------------10--------------------12-
E------------------------------10-----3--0-----------12-
A-12-12-10-8-7--0-9--9-9-10-12-13--1-----7--7-7-8-10-12-
 2:01
G---------------------------------------------------------------------------------
C-0-----------------------------------------------------------------------3-6-3-2-
E--------0-----10------------------------3-2---------------------3h5p3p2----------
A---10-8-7-6-7-10-8-7-5-4-5-7--0-3--1-0------0-3h5p3p1--1h3p1p0-------------------
 2:19
G------------------------------------------------
C------2--2-------2------------------------------
E-2----3--3-------3--3-----10--10--8-------------
A---1--5--5-3-1-0-1----1-5-10--10-10--12--8-6-8--

G----------------------------------------------
C---------------------5----------------------2-
E-6------9------------5--------8-------------5-
A---5-8-12--8-8-10-8--8p7p6h7-10--8--7p5p4h5-5-

G------------------------------------------------------
C------1-------2-------------------------------------2-
E------0-------5----------------------2-3-2-3--5--2----
A-3-1--0--1-4--5--9-10-9-10-12--9--5-------------------
Login or Register to remove this ad.

1 comment on Main Theme

I love that you've added so

I love that you've added so many ukulele tabs and they're all great, but please, PLEASE flip the tabs so that they're actually playable. (you've written them upside-down, check any guitar tab or this: Zelda's lullaby to see how it should be)