Login or Register to remove this ad.

Kirameku Hamabe (Houseki no Kuni) Guitar Tab

Submitted: Dec 05, 2017 by MechaKrauser

5
Average: 5 (4 votes)
Download | Listen
Game: Houseki no Kuni
Composer(s): Yoshiaki Fujisawa
Style: Arrangement, Fingerstyle

This song is also called Ending Theme

AutoScroll: Slow | Medium | Fast
Kirameku Hamabe
from Houseki no Kuni
performed by Yuiko Ohara
music and lyrics by Keiichi Suzuki
tab by MechaKrauser

Drop D, capo 3
4/4 time (some bars 2/4), 69bpm

*staccato notes are marked "." above the duration


   [Intro]
     ^                         ^         ^                ^                     
     E  E  E  E  E  E  Q       E   E  E  E  E  E  Q       E  E  E  E  H         
E||-------------------------|--------------------------|-----------------------|
B||-----2--4--------4--L----|--5S--4--2--0--L--2--L----|-----2--4--------------|
G||--4----------------------|--4---------2--L----------|--4--------------------|
D||--4--------4--L----------|--2-----------------------|--4--------4--L--------|
A||--2----------------------|------------0--L----------|--2--------------------|
D||-------------------------|--2-----------------------|-----------------------|


                                             [Verse 1]

  S S S S S S S S S S S S Q       Q    E  E     E  E  E  E  E  E  Q     
--2----------------------------|-------------|-------------------------|
----5-4-2----------------------|----------2--|--4--4--4--4--4--4--L----|
----------4-2-1----------------|-------4-----|--------4----------------|
----------------4-2-1----------|-------------|-----4-------------------|
----------------------4-2-L----|--L----------|--2--------2--2----------|
-------------------------------|-------------|-------------------------|


  ^                            ^       .     ^                ^             
  E  E  E  E  E    E  E  E     E  S  S E  E  E  S  S E  E     E  S S E  E   
--------0-------------------|------------------------------|---------------|
-----------3--1--0g1--L--0--|--4---------------------------|------------2--|
--2-------------------------|--2---------------------------|--4------4-----|
-----0----------------------|--4--5p-4-4--2--0-------------|--4----4-------|
--------0-------------------|--2----------2--2--3p-2-2--2--|--2--2---------|
--0--------0--0-------------|------------------------------|---------------|


              .             ^                 ^  .  .  v  ^       ^                                
  E  E  E  E  Q    E  E     E  S  S S S E     E  E  E  E  E  S  S Q       E  E  E  E  E  E  E  E   
--------------0----0--0--|--0-----------0--|--2------------------------|--5--5--5--5--4--4--4--0--|
--4--4--4--4-------------|--3-----------3--|--3------------------------|--------------------------|
--------4----------------|--2-----------2--|--2------------------------|-----2-----2-----1-----1--|
-----4-------------------|--0--0h-2--------|--4--5--4--2--0--0h-2-4----|--0-----0-----------------|
--2--------2--2----2-----|--0-------0------|--0--------0--0-------0----|--------------4-----4-----|
-------------------------|--0---------0----|--0--------0--0-------0----|--------------------------|


              ^    ^                                              ^          
  E  E  E  E  Q    Q       E  E  E  E  E  E  E  E     E  E  E  E  Q.     E   
--2--2--2--2-------0----|--5--5--5--5--7--7--7--0--|--2-----2--2--2---------|
--------------3----2----|--------------0--0--0--0--|--2-----2--2--2---------|
--------------4---------|--2--2--2--2--------------|------------------------|
-----4-----4------------|--------------------------|------------------------|
--------------2----4----|--------------------------|------------------------|
--4-----4---------------|--0--0--0--0--2--2--2--2--|--4--4--4--4--L---------|


 [Pre-Chorus]
           .                                                              .
  >        >       >     >           ^                           >        >       >     >        
  S S S  S E  S  S E  E  S S  S S    E  E  E  E  S S E  E  E     S S S  S E  S  S E  E  S S  E   
------0h-2------------0----0h-2---|--5--4--2-------0----------|------0h-2------------0----0h-2--|
--3-3------3--3p-2-3-----3------3-|-----------5--3---3--2--0--|--3-3------3--3p-2-3-----3-------|
----------------------------------|---------------------------|---------------------------------|
----------------------------------|--2-----2------------------|---------------------------------|
-----------0-------------0-L------|--------------2-L----4-----|-----------0-------------0-L-----|
--0-L--------------0--------------|--2-----2------------------|--0-L--------------0-------------|


          .                        ^         ^                        ^           
  S S  E  E  S S E   E  S S  E     Q    Q    Q    Q       Q    E   E  Q    E  E   
--5-LS-4--2----0-2S--4--5-LS-7--|-------5---------7----|-------------------------|
-------------3------------------|--7-------------------|--7-----------7----------|
--2-LS-1----------------2-LS-4--|--7---------6---------|--------------6----4--6--|
----------4--0---4S--6----------|------------6---------|--------------4----------|
--5-5S-4--2----0-2S--4--5-5S-7--|--5----5----4----4----|-------2S--4--4----------|
-------------4------------------|----------------------|--4-----------4----------|


 [Verse 2]
                            ^                            ^       .     ^              
  E  E  E  E  E  E  Q       E  E  E  E  E    E  E  E     E  S  S E  E  E  S  S E  E   
-------------------------|--------0-------------------|------------------------------|
--4--4--4--4--4--4--L----|-----------3--1--0g1--L--0--|--4---------------------------|
--------4----------------|--2-------------------------|--2---------------------------|
-----4-------------------|-----0----------------------|--4--5p-4-4--2--0-------------|
--2--------2--2----------|--------0-------------------|--2----------2--2--3p-2-2--2--|
-------------------------|--0--------0--0-------------|------------------------------|


  ^                           .             ^                 ^  .  .  v  ^              
  E  S S E  E     E  E  E  E  Q    E  E     E  S  S S S E     E  E  E  E  E   E  E  S S  
---------------|--------------0----0--0--|--0-----------0--|--2-------------------------|
------------2--|--4--4--4--4-------------|--3-----------3--|--3-------------------------|
--4------4-----|--------4----------------|--2-----------2--|--2-------------------------|
--4----4-------|-----4-------------------|--0--0h-2--------|--4--5--4--2--0h--4-------4-|
--2--2---------|--2--------2--2----2-----|--0-------0------|--0--------0--0---------0---|
---------------|-------------------------|--0---------0----|--0--------0--0------0------|


                                          ^    ^                                
  E  E  E  E  E  E  E  S S    E  E  E  E  Q    Q       E  E  E  E  E  E  E  E   
--5--5--5--5--4--4--4--0---|--2--2--2--2-------0----|--5--5--5--5--7--7--7--0--|
---------------------------|--------------3----2----|--------------0--0--0--0--|
-----2-----2-----1-----1---|--------------4---------|--2--2--2--2--------------|
--0-----0------------------|-----4-----4------------|--------------------------|
--------------4-----4------|--------------2----4----|--------------------------|
---------------------------|--4-----4---------------|--0--0--0--0--2--2--2--2--|


                        [Pre Chorus 2]
                                    .
              ^            >        >       >     >                      .  ^         .   
  E  E  E  E  Q.     E     S S S  S E  S  S E  E  S S  S S      E  E  E  E  S S E  E  E   
--2-----2--2--2---------|------0h-2------------0----0h-2---|--4g5--4--2-------0----------|
--2-----2--2--2---------|--3-3------3--3p-2-3-----3--------|-------------5--3---3--2--0--|
------------------------|----------------------------------|-----------------------------|
------------------------|----------------------------------|----2-----2------------------|
------------------------|-----------0-------------0-L------|----------------2-L----4-----|
--4--4--4--4--L---------|--0-L--------------0--------------|----2-----2------------------|

           .
  >        >       >     >                  .                        ^                      
  S S  S S E  S  S E  E  S S  E     S S  E  E  S S E   E  S S  E     Q    E  E  Q    E  E   
----0h-2--------------0----0h-2--|--5-LS-4--2----0-2S--4--5-LS-7--|------------------------|
--3--------3--3p-2-3-----3-------|-------------3------------------|--7---------------------|
---------------------------------|--2-LS-1----------------2-LS-4--|--6----4--6--4-------4--|
---------------------------------|----------4--0---4S--6----------|--4---------------7-----|
-----------0-------------0-L-----|--5-5S-4--2----0-2S--4--5-5S-7--|--4---------------------|
--0-L--------------0-------------|-------------4------------------|--4----4-----4----4-----|


             [Chorus]
  ^             ^           ^               ^                          ^           ^            
  Q    E  E     E.  S E  E  E   E  E  E     E  E  E  E  E  E  E  E     E.  S E  E  E  E  E  E   
----------0--|--2-----------3S--2--0-----|--------------2--------0--|--2--------2--3-----3--3--|
-------3-----|--3--------3------------3--|--2--3--5-----------3-----|--3-----------------------|
-------------|--2------------------0-----|-----------2--------------|--2-----------------0-----|
--0----------|-----------0------0--------|-----2-----------0--4-----|-----------0-----0--------|
--2----------|--------0------------------|--4-----4-----2-----------|--------0-----------------|
--5----5-----|--0---0-------5------------|--------------------------|--0---0-------5-----------|


             ^             ^           ^              ^           ^            
  E  E  Q    E  E  Q       E  E  E  E  E  E  E  E     E  E  E  E  E.  S E  E   
--5--0--3---------------|--0--0--L-----2--2--L-----|--4--4--0--4--2-----2--4--|
-------------7----------|-----------2-----------2--|--------------------------|
--------2---------------|--------------------------|--------------------------|
-----2-------4----------|-----2--L-----4--4--L-----|-----2--------4---L-------|
--0-------------4-------|--4-----------------------|--4-----4-----------------|
-------------4-----4----|--------------------------|--------------------------|


  ^           ^                                                                       
  E  E  E  E  E  E  E  S  S    E  S S E  E  Q    E  E     S  S E  Q    E  E  E  S  S  
--5--5--4--2--0--------2s-4-|--5--5-5-7--7--2----------|--2h-4-5-------4--7-----4p-0-|
----------------------------|---------0--0--2----------|---------------0--0----------|
-----2-----2-----2--L-------|--6--6--------------------|--2----2---------------------|
--0-----0--------2--L-------|--------------------------|-----------------------------|
--------------0--0--L-------|--------------------------|-----------------------------|
----------------------------|--4------2-----4----4-----|--0-------0----2-----2-------|


                      [Interlude]
             ^           ^             ^                  ^                                 
  Q    E  E  H           E  E  S. S. S S. S. S S. S. S    E  S S  S. S. S   E.  T  T E  E   
--2-------------------|--------------------------------|----------------0------------------|
--2----------7--------|--0-------------------0---------|-------------0------------------0--|
-------------6--------|-----0-----2------------2s-1--2-|-------2s-1-------0g1--------------|
-------------4--------|--0-----0-----0----2------------|--2-----------------0---4p-2-4-----|
-------2--4--4--------|----------------4---------------|-----2-----------------------------|
--4----------4--------|--5-------------4---------------|--2-----------------0--------0-----|


  ^               ^       ^          ^                   ^                    
  S S S S S S S S S S S S S S S S    S S T. T. T S S S S S S S T  T E  S T T  
--------------------------------5-|--7-5-2--5s-4-L---------------------------|
--0-------------------------5-7---|----------------5-3---5---------------7-7-|
----------------2-------4-7-------|--------------------2---7-6---------------|
--4---4---4---2---4---4---4-------|--2-------------------0-----4h-6-4--------|
----5---5---5-------5-------------|------------------------------------------|
--5-------5-------4-------4-------|--2-----------2-------0----------0--0-----|


        ^        ^                  ^                 ^                  
  E  E  S. S. S  S. T S S E.  S     S. T S S  S. S. S S. T S  S E.  T T  
--------7--5------------7-5---9-|--10S-9-L-7--------9-7--5-LS-4-2---2-2-|
--7-----------------5-L---------|------------10S-9----------------------|
--------------------------------|---------------------------------------|
--------5-----9S-7--------4-----|--------9------------0-----------------|
-----5----------------4---------|---7---------7------------0------------|
--5--------------4--------------|-------------------------------0-------|


                                                            [Pre-Chorus 3]
  .        .      .  .  .           ^       ^     ^            >        >       >     >         
  E  S T T E  S S E  E  E  S T T    E.  T T E.  S Q    Q       S S S  S E  S  S E  E  S S  S S  
--2----7-7-5------2----------2-2-|--2---7-7-5---0-9---------|------0h-2------------0----0h-2---|
----------------5----------------|--------------------------|--3-3------3--3p-2-3-----3------3-|
---------------------------------|--------------------------|----------------------------------|
---------------------------------|--2-------2---------------|----------------------------------|
--2--2-----2--2---2--2--2--2-----|----------------7----4----|-----------0-------------0-L------|
---------------------------------|--2-------2---------------|--0-L--------------0--------------|


  ^                           >        >       >     >                   .                      
  E  E  E  E  S S E  E  E     S S S  S E  S  S E  E  S S  S S    S S  E  E  S S E   E  S S  E   
--5--4--2-------0----------|------0h-2------------0----0h-2---|--5-LS-4--2----0-2S--4--5-LS-7--|
-----------5--3---3--2--0--|--3-3------3--3p-2-3-----3--------|-------------3------------------|
---------------------------|----------------------------------|--2-LS-1----------------2-LS-4--|
--2-----2------------------|----------------------------------|----------4--0---4S--6----------|
--------------2-L----4-----|-----------0-------------0-L------|--5-5S-4--2----0-2S--4--5-5S-7--|
--2-----2------------------|--0-L--------------0--------------|-------------4------------------|


                                      [Chorus 2]
  ^                        ^             ^           ^               ^                        
  Q    E  E  Q    E  E     Q    E  E     E.  S E  E  E   E  E  E     E  E  E  E  E  E  E  E   
------------------------|----------0--|--2-----------3S--2--0-----|--------------2--------0--|
--7---------------------|-------3-----|--3--------3------------3--|--2--3--5-----------3-----|
--6----4--6--4-------4--|-------------|--2------------------0-----|-----------2--------------|
--4---------------7-----|--0----------|-----------0------0--------|-----2-----------0--4-----|
--4---------------------|--2----------|--------0------------------|--4-----4-----2-----------|
--4----4-----4----4-----|--5----5-----|--0---0-------5------------|--------------------------|


  ^           ^                         ^             ^           ^            
  E.  S E  E  E  E  E  E     E  E  Q    E  E  Q       E  E  E  E  E  E  E  E   
--2--------2--3-----3--3--|--5--0--3---------------|--0--0--L-----2--2--L-----|
--3-----------------------|-------------7----------|-----------2-----------2--|
--2-----------------0-----|--------2---------------|--------------------------|
-----------0-----0--------|-----2-------4----------|-----2--L-----4--4--L-----|
--------0-----------------|--0-------------4-------|--4-----------------------|
--0---0-------5-----------|-------------4-----4----|--------------------------|


  ^           ^              ^           ^                                          
  E  E  E  E  E.  S E  E     E  E  E  E  E  E  E  S  S    E  S S S S E  Q    E  E   
--4--4--0--4--2-----2--4--|--5--5--4--2--0--------2s-4-|--5--5-5-7-7-7--2----------|
--------------------------|----------------------------|---------0---0--2----------|
--------------------------|-----2-----2-----2--L-------|--6--6---------------------|
-----2--------4---L-------|--0-----0--------2--L-------|---------------------------|
--4-----4-----------------|--------------0--0--L-------|---------------------------|
--------------------------|----------------------------|--4------2------4----4-----|

                             [Outro]
                                ^           ^              ^            ^         ^   
  S  S E  Q    E  E  E  S  S    E  E  E  E  E  E  E  E     E  S S E  E  E  S S E  E   
--2h-4-5-------4--7-----4p-0-|--------------------------|----------------------------|
---------------0--0----------|--7-----------7-----------|-------------------------7--|
--2----2---------------------|--6--------6--------6-----|--6------6-----6------6-----|
-----------------------------|--------4--------4-----4--|-------4----4-------4----4--|
-----------------------------|-----4--------------------|-----4------------4---------|
--0-------0----2-----2-------|--4-----------4-----------|--4------------4------------|


  v                   
  H        H          
--------------------||
--------------------||
--------------------||
--4-----------------||
--4-----------------||
--4-----------------||




Duration Legend
---------------
W - whole
H - half
Q - quarter
E - 8th
S - 16th
T - 32nd
X - 64th
. - note dotted
|-n-|  - n-tuplets


Tablature Legend
----------------
L - tied note
x - dead note
g - grace note
(n) - ghost note
> - accentuded note
NH - natural harmonic
AH - artificial harmonic
TH - tapped harmonic
SH - semi harmonic
PH - pitch harmonic
h - hammer on
p - pull off
b - bend
br - bendRelease
pb - preBend
pbr - preBendRelease
brb - bendReleaseBend
\n/ - tremolo bar dip
\n - tremolo bar dive
-/n - tremolo bar Release up
/n\ - tremolo bar inverted dip
/n - tremolo bar return
-\n - tremolo bar Release down
S - shift slide
s - legato slide
/ -  slide into from below or out of upwards
\ -  slide into from above or out of downwards
~ - vibrato
W - wide vibrato
tr - trill
TP - tremolo picking
T - tapping
S - slap
P - pop
< - fade in
^ - brush up
v - brush down
Login or Register to remove this ad.

4 comments on Kirameku Hamabe

Aaaaeee Lmao

5

Aaaaeee Lmao

( ͡° ͜ʖ ͡° ) #OTOKONOKOFEVER

( ͡° ͜ʖ ͡° ) #OTOKONOKOFEVER

OMG SO EPIC

5

I think that I love you, seriously. You are my god. Thanks!

Glad you like the tab! :)

Glad you like the tab! :)