Login or Register to remove this ad.

Main Theme (Horizon Zero Dawn) Guitar Tab

Submitted: May 18, 2017 by Moridin

0
Download | Listen
Game: Horizon Zero Dawn
Composer(s): Joris de Man
Style: Arrangement, Fingerstyle

AutoScroll: Slow | Medium | Fast
Name of game: Horizon Zero Dawn
Name of song: Main Theme
Composer of song:  Joris De Man
Name of tabber: Moridin
Date tab was made: 17/05/2017

Track 1
     Q    Q.     E  E  E     E  E  E  E  E  E  E  E   
E||-----------------0--1--|--0-----------------0--1--|
B||-----------------------|--1-----------0--1--------|
G||--------------2--------|--2--2--------------------|
D||-----------------------|--2-----2-----------------|
A||-----------------------|--0--------0--------------|
E||-----------------------|--------------------------|


  E  E  E  E  E  E  E  E     E  E  E  E  E  E  E  E   
--------------------3--1--|--1-----------------------|
--0-----1-----------------|--1-----------------------|
--0-----0-----0-----------|--2--2--------2-----------|
--0--0-----------0--------|--3-----3-----3-----------|
--2-----------------------|--3-----------------3-----|
--3--------3--------------|--1--------1-----1-----1--|


  E  E  E  E  E  E  E  E    
--7-----5-----3-----1-----||
--------------------------||
-----7-----7-----2--------||
--0-----------------------||
--------------------------||
--------------------------||
Login or Register to remove this ad.