Login or Register to remove this ad.

Main Theme (Horizon Zero Dawn) Guitar Tab

Submitted: May 18, 2017 by Moridin (Last updated: Jun 14, 2017)

5
Average: 5 (1 vote)
Download | Listen
Game: Horizon Zero Dawn
Composer(s): Joris de Man
Style: Arrangement, Fingerstyle

AutoScroll: Slow | Medium | Fast
Name of game: Horizon Zero Dawn
Name of song: Main Theme
Composer of song:  Joris De Man
Name of tabber: Moridin / Additional contributions by Kamiden
Date tab was made: 17/05/2017

   E  E  E     E  E  E  E  E  E  E  E     E  E  E  E  E  E  E  E     E  E  E  E  E  E  E  E 
e|----0--1--|--0-----------------0--1--|--------------------3--1--|--1-----------------------|
B|----------|--1-----------0--1--------|--0-----1-----------------|--1-----------------------|
G|-2--------|--2--2--------------------|--0-----0--------2--------|--2--2--------2--------4--|
D|----------|--2-----2-----------------|--0--0--------0-----------|--3-----3-----3-----------|
A|----------|--0--------0--------------|--2-----------------------|--3-----------------3-----|
E|----------|--------------------------|--3--------3--------------|--1--------1-----1-----1--|



    E  E  E  E  E  E  E  E    
e|--7-----5-----3-----1-----|
B|--------------------------|
G|-----7-----7-----2-----2--|
D|--0-----------------------|
A|--------------------------|
E|--------------------------|


    E  E  E  E  E  E  E  E     E  E  E  E  E  E  E  E     E  E  E  E  H              W
e|--0-----------------0-----|--------------------------|-------------T3-----------|-/5-------|
B|--1-----------0--1-----1--|--3--------------------0--|--------------------------|----------|
G|--2-----2-----------------|--0-----0--------0--------|--2-----------------------|----------|
D|--2-----2-----------------|--0--0--------0-----0-----|--3-----------------------|----------|
A|--0--0-----0--------------|--2-----------------------|--3-----------------------|----------|
E|--------------------------|--3--------3--------------|--1-----------------------|----------|


   E  E  E     E  E  E  E  E  E  E  E     E  E  E  E  E  E  E  E     E  E  E  E  E  E  E  E 
e|----0--1--|--0-----------------0--1--|--------------------3--1--|--1-----------------------|
B|----------|--1-----------0--1--------|--0-----1-----------------|--1-----------------------|
G|-2--------|--2--2--------------------|--0-----0--------2--------|--2--2--------2--------4--|
D|----------|--2-----2-----------------|--0--0--------0-----------|--3-----3-----3-----------|
A|----------|--0--------0--------------|--2-----------------------|--3-----------------3-----|
E|----------|--------------------------|--3--------3--------------|--1--------1-----1-----1--|



    E  E  E  E  E  E  E  E    
e|--7-----5-----3-----1-----|
B|--------------------------|
G|-----7-----7-----2-----2--|
D|--0-----------------------|
A|--------------------------|
E|--------------------------|


    E  E  E  E  E  E  E  E     E  E  E  E  E  E  E  E     E  E  E  E  H  E  E  E     E  E  E  E  E  E  E  E
e|--5-----5-----------0-----|--------------------3-----|--1-----------------------|--------------------0--1--|
B|--5-----------0--1-----1--|--3--------------------0--|--1-----------1-----------|--------------------------|
G|--5-----------------------|--0-----0--------0--------|--2-----2--------2-----2--|-----------0-----2--------|
D|--7--7--------------------|--0--0--------0-----------|--3--3--------------3-----|--------0-----------------|
A|--7--------0--------------|--2-----------------------|--3--------3--------------|-----2--------2-----------|
E|--5-----------------------|--3--------3--------------|--1-----------------------|--3-----------------------|


    E  E  E  E  E  E  E  E     E  E  E  E  E  E  E  E     E  E  E  E  E  E  E  E 
e|--0-----------------0--1--|--------------------3--1--|--1-----------------------|
B|--1-----------0--1--------|--0-----1-----------------|--1-----------------------|
G|--2--2--------------------|--0-----0--------2--------|--2--2--------2--------4--|
D|--2-----2-----------------|--0--0--------0-----------|--3-----3-----3-----------|
A|--0--------0--------------|--2-----------------------|--3-----------------3-----|
E|--------------------------|--3--------3--------------|--1--------1-----1-----1--|



    E  E  E  E  E  E  E  E    
e|--7-----5-----1-----3--1--|
B|--------------------------|
G|-----7-----7-----2-----2--|
D|--0-----------------------|
A|--------------------------|
E|--------------------------|


    E  E  E  E  E  E  E  E     E  E  E  E  E  E  E  E     E  E  E  E  E  E  E  E 
e|--0-----------------0--1--|--------------------3--1--|--1-----------------------|
B|--1-----------0--1--------|--0-----1-----------------|--1-----------------------|
G|--2--2--------------------|--0-----0--------2--------|--2--2--------2--------4--|
D|--2-----2-----------------|--0--0--------0-----------|--3-----3-----3-----------|
A|--0--------0--------------|--2-----------------------|--3-----------------3-----|
E|--------------------------|--3--------3--------------|--1--------1-----1-----1--|



    E  E  E  E  E  E  E  E    
e|--7-----5-----3-----1-----|
B|--------------------------|
G|-----7-----7-----2-----2--|
D|--0-----------------------|
A|--------------------------|
E|--------------------------|




    E  E  E  E  E  E  E  E     E  E  E  E  E  E  Q        W  
e|--5-----5-----------12----|--10----------------7-----|--------------------------|
B|--5-----------5-----10----|--8-----8--------8--------|--10----------------------|
G|--5-----------5--------9--|--7-----7-----7-----------|--9-----------------------|
D|--7--7-----------7-----7--|-----9-----9--------------|--7-----------------------|
A|--7-----------------------|--------------------------|--7-----------------------|
E|--5--------5--------------|--------------------------|--------------------------|
Login or Register to remove this ad.