Ads

Hoshi to Kimi ga Kieta Hi (Honkai Impact 3rd) Guitar Tab

Submitted: Aug 11, 2022 by Jerimundo (Last updated: Aug 12, 2022)

0
Download | Listen
Game: Honkai Impact 3rd
Style: Arrangement, Fingerstyle

This song is also called The day you vanished with the stars

Click here for a video example.

AutoScroll: Slow | Medium | Fast

Music: Hoshi to Kimi ga Kieta Hi (The Day You and the Stars Disappeared)
Artist: HOYO-MiX ft Yousa
Arrangement and Tab: Vitor Yoiti Mizutani

PDF: https://drive.google.com/file/d/16wFEb7oIOYiiQ4ADj3wj3_1y7FOkWDjG/view?u...

Track 1

     E  E  E  Q.     E  E     E  E  E  Q.     E  E     E  E  E  Q    E  E  E   
E||--2--------0------------|--------5--0---------0--|--2--------0-------9--5--|
B||--------0---------3--2--|--2--3------------3-----|--------0----------------|
G||--0--2-----2------------|-----------2------------|--0--2-----2----7--------|
D||------------------------|--4---------------------|-------------------------|
A||------------------------|------------------------|-------------------------|
E||------------------------|------------------------|-------------------------|


  E  E  E  E  H           E  E  E.  S S E  E.  E     E  S E  S S Q    S Q     
--------5--0--L--------|-----2--2---2-2-0--0------|-------0--2---------------|
-----3-----3--L--------|--------3-----5--------3--|--2--3--------2----L------|
-----------------------|--0-----------------------|--4---------0--------2----|
-----------------------|--------------------------|--------------------------|
--2--------------------|--------------------------|--------------------------|
-----------------------|--------------------------|--------------------------|


  E  E  E.  S S E  E.  E     Q.     S Q    E.  E     E  E  E.  S S E  E.  E   
-----2--2---2-2-0--0------|--5------7-5----L---0--|-----2--2---2-2-0--0------|
--------3-----5--------3--|-----------7----L------|--------3-----5--------2--|
--0-----------------------|--6--------7----L------|--0-----------------------|
--------------------------|--4--------------------|--------------------------|
--------------------------|-----------------------|--------------------------|
--------------------------|-----------------------|--------------------------|


  E  S S S E  Q    S S. S. S    Q    E  Q.     Q     
-------0---5--5----L-5--3--2-|--3--------------0----|
--2--3---0----2--------------|-------3--3------3----|
--2--------------------------|--2-------3-----------|
-----------------------------|--0-------------------|
-----------------------------|----------------------|
-----------------------------|----------------------|


              NH    NH    NH    NH                             
  H           E     E     E     E     E  E  E.  S S E  E.  E   
--0--------------------<>17--<>12--|-----2--2---2-2-0--0------|
-----------------<>15--------------|--------3--------------3--|
--2--------<>14--------------------|--------------2-----------|
-----------------------------------|--------------------------|
-----------------------------------|--------------0-----------|
-----------------------------------|--3-----------------------|


  E  S E  S S Q    S S S S S    E  E  E.  S S E  E.  E   
-------0--2----------3-2-0---|-----2--2-----2-0--0------|
--2--3-2------2------------3-|--------3--------------3--|
--2---------2------2---------|--0---------2-------------|
-----------------------------|--------------------------|
--2---------0----------------|------------0-------------|
-----------------------------|--3-----------------------|


  E  E  E  S Q    S E  E     E  S S Q    S E  Q    S  
--5--------7-5----L-------|-----2-2-2----2-0--0------|
-------------7------3-----|---------3--------------3-|
--7--6--7----7---------2--|--------------2-----------|
--4-----------------------|--------------------------|
--------------------------|--------------0-----------|
--------------------------|--3-----------------------|


  E  S E  S S Q    S S. S. S    E  E  E  Q    E  E  E   
----------5---5----L-5--3--2-|--3----------------0-----|
--2--2-3-------------7--5--3-|-----------3-------0-----|
-----------------------------|-----0--2--3----2--------|
--0--------------------------|--0-------------------0--|
-------4----0----------------|-------------------------|
-----------------------------|-------------------------|


                 NH                                                
  E  E  E  E     E   E   E  S  S     E  E  E  E   E  S S S S S  S  
--0-----------<>12------10--9----|------------7-------------------|
-----------2--------10--------10-|---L-----------10--8-7---8---10-|
--------4------------------------|------------7------7---9--------|
-----2---------------------------|------7--9------7----------8----|
--0------------------------------|--10----------------------------|
---------------------------------|--------------------------------|


                  NH                                              
   E  E  E   E    E   E   E  S  S     E  E  E  E   E  S S S S E   
-------------------------10--9----|------------7-----------------|
---L------------<>7--10--------10-|---L-----------10--8-7--------|
------7--9--11--------------------|------------7------7-----9----|
---9------------------------------|------7--9------7------7---7--|
----------------------------------|--10--------------------------|
----------------------------------|------------------------------|


  E  E  E  S  S E   E   E  S  S     E  E  E   E   E   S  S  S  S  E   
-----------7-----------10--9----|------------10--12--10-12----10-----|
--7----------10----10--10----10-|---L------------10--12--------------|
--------7-----------9-----------|-------------7------------11--------|
-----9----------7---------------|------7--9--------------------------|
--7-----------------------------|--10----------------------------13--|
--------------------------------|------------------------------------|


   E   H        E  E   E      E  E  S S S  S  S E.   E    E   
--12--14------------------|----------------------------------|
----------------7-----10--|--10--8--8-7----------------------|
-------------------7------|---------9-----11----9---11s--12--|
-----------------------7--|------9-----------11--------------|
--14----------------------|---7---------9--------------------|
--------------------------|----------------------------------|


   E   H.           S  S    E  S E  S E.  E.  E  E     E.  E.  E.  E.  E  E   
-------------------------|----------5-0-------------|--5---3---2-------------|
--------------------0h-2-|--3--2-3--------3---2-----|--------------3---2--3--|
--12--11-----------------|-----------------------2--|--0-------0-------0-----|
---9---------------------|--------------------------|---------------------0--|
--10---------------------|--------------------------|------------------------|
-------------------------|--------------------------|------------------------|


  S S E  E  E  S  E  S E  E     S S S  S S S S Q    S E  E   
-----------------------------|------------------------------|
-----------------------------|------------------------------|
-----------------------------|------------------------------|
------4--4-----4s-2--2----0--|------------------------------|
---------x--0----------x-----|--4---4s-5---7---4----L-x-----|
--3-3----x-------------x-----|--7-7------x---5--------x--5--|


  S S E  E  S S S  E  S E  E     S S E  E  S E.  E  E  E   
------------------------------|---------------------------|
------------------------------|------------0-0------------|
------------------------------|--2---------------2--------|
------4--4----4-4s-2--2----0--|---------------------------|
---------x--0-----------x-----|--2-2----------------x-----|
--3-3----x--------------x-----|---------x--2--------x--2--|


  S S E  E  S S S  E  S E.  S    S S S  S S S S Q    S S. S. S  
------------------------------|--------------------------------|
------------------------------|--------------------------------|
------------------------------|-------------2---2----L-2--0----|
------4--4----4-4s-2--2-----0-|------------------------------4-|
---------x--0-----------x-----|--4---4s-5-----4--------x-------|
--3-3----x--------------x-----|--7-7------x------------x-------|


  Q    E  E  Q    Q       E  E  E  E  E  E  E  S S  
-----------------------|---------------------------|
-----------------------|--------------------3--2---|
--0--------------------|-----------------2-------2-|
----------0-------2----|--2------------------------|
-----------------------|--0--0--0--0--0------------|
--0----0-----0----0----|---------------------------|


        ^                                                
  E  E  E  E  E  S S S S E     E  E  E  E  E  E  E  S S  
----------------------------|---------------------------|
-----------0----------------|--------------------3--2---|
--L-----0-----2--0-----0----|--2--------------2-------2-|
--------0-----2----4--------|---------------------------|
-----0--x-----0-------------|--2--2--x--2--0-----x------|
--3------------------x---x--|--------x-----------x------|


        ^                                                 
  E  E  E  E  E  S S S S E     E  E  E  S S E  E  E  S S  
----------------------------|----------------------------|
-----------0----------------|-----------0---------3--2---|
--L-----0-----2--0----------|-------------2----2-------2-|
--------0-----2----4---2----|--4-------------------------|
-----0--x-----0-------------|--------x------0-----x------|
--3------------------x---x--|--2--2--x------------x------|


        ^                                              
  E  E  E  E  E  S S S S E     E  E  E  E  Q    E  E   
--------------0----0--------|--0--2-------------------|
-----------3-----3-----3----|-------------------------|
--L-----0-----2--------2----|----------------------2--|
--------0-----2-------------|-----------2--4----------|
-----0--x-----0-------------|--2--4--5----------x-----|
--3------------------x---x--|-------------------x-----|


  S S S S S S S E  E.  E  E     E  E  E  Q    E  E  S   S  
-----------------------------|----------------------------|
-----------------------------|----------------------------|
--2---0-0-----------------0--|--L--0----------------9h-11-|
------------4---4--2---4-----|-----0-----4----------------|
-----------------------x-----|--------x----------x--------|
--0-0-----x---2--------x-----|--3-----x--0----0--x--------|


   S  S  S S S S E.  E.  E  E     E.  S E  Q.     E  E     Q.     Q.     E  E   
--10p-9----0-2-5-2---0---0-----|--0---5----2------0-----|----------------0--2--|
--------10------------------3--|---------------------3--|----------------------|
-------------------------------|------------------------|--2-------------------|
-------------------------------|------------------------|---------4------------|
-------------------------x-----|--------x--2------x-----|----------------------|
---0-------------2-------x-----|--6-----x---------x-----|--0------2------------|


  E.  E.  Q     E   E  S  S     Q.      E   E   S  E   E.   
----------2--------10--9----|--14------10--12--------------|
--3------------10--------10-|---L------12--10--------------|
------2---------------------|------------------12-11--12---|
----------------------------|------------------------------|
----------------------------|------------------------------|
--3-------------------------|------------------------------|


                NH                                                 
   |------3-----|                                                  
   Q     Q      Q    E   E   E  S  S     E  E  E  E   E  S E  E.   
---9----10------------------10--9----|------------7-----------0---|
--10--------------------10--------10-|---L-----------10--8-7------|
-------------------------------------|------------7---9-----------|
--------------<>7----L---------------|------7--9------7-----------|
-------------------------------------|--10------------------------|
-------------------------------------|----------------------------|


                               ^     ^     ^  ^   ^ v ^   
  E  E  E  S S E  E  E  S S    E  E  E  E  E  S S S S E   
----------------------------|--------------0----0--------|
---------------------3--2---|-----------3--0--3-----3----|
-----------4-2----2-------2-|--L-----------2--2---2-2----|
--4-------------------------|--0-----0-----2------2---2--|
--2--2--2--2---2--2--2------|--0-----0-----0------0---0--|
----------------------------|--3--3--3--3---------x---x--|


  E  E  E  E  E  E  E  E     S S S S S S S E  E.  E  S S  
--0--2--------------------|------------------------------|
--3--3--------------------|------------------------------|
--4--4-----------------2--|--2---0-0-----------------0-0-|
--4--4--2--2--0--0--2--2--|------------4---4--2---4------|
--2--2--4--4--------------|-----------------------x------|
--------------------------|--0-0-----x---2--------x------|


  S S E  E  Q    E  E  S S    E  E  E  S E.  E  S  S S S  
---------------------------|-----------------------------|
--------------------3--2---|-----------------------------|
--L--------------2-------2-|--------------------2s-4---4-|
------4--------------------|-----0-----------------------|
---------x--0-------x------|--------4--0-----0--x----0---|
--3-3----x----------x------|--3--3--x--3-2---------------|


  E  E  E  E  E  E  E  S S    E  E  E  S E.  E  E  E   
---------------------------|--------------------------|
--------------------3--2---|--------------------------|
--L--2-----------2-------2-|--------------------0-----|
---------------------------|-----0--------------------|
--2--2--x--2--2--2--x------|--------4--0-----0--x--0--|
--------x-----------x------|--3--3--x--3-2------x-----|


  E  E  E  E  E  E  E  S S    Q.     E  E  S E.  E   
---------------------------|------------0----0------|
--------------------3--2---|---------3-----3-----3--|
-----------------2-------2-|--L---------------------|
--4-----------------0--2---|------------------------|
--2--2--x--2--2--4---------|------------------------|
--------x------------------|--3---------------------|


     NH    NH                                             
     E     H.           S S    E  S S S E  E  E.  E  S S  
--<>12--<>14------------5-5-|--5--3-3---2--2--0---2--3-3-|
----------------------------|---------3-----------3------|
----------------------------|--------------2-------------|
----------------------------|--2-------------------------|
----------------------------|----------------------------|
----------------------------|----------------------------|


  E  Q.     S S  S S  E  E     E  S S S E  E  E.  Q      
--L--2------0------------5--|--5--3-3---2--2--0---2s----|
--------------3p-2----------|---------3-----------3-----|
--0----------------2p-0-----|--------------2------------|
----------------------------|--2------------------------|
----------------------------|---------------------------|
----------------------------|---------------------------|


  E  E  E  Q.     E  E     E  E  E  Q.     E  E     E  E  E  Q    E  E  E   
--3-----2---------------|---------------------0--|--2--------0-------9--5--|
------------------------|------------------3-----|--------0----------------|
------------------------|--------2---------------|--0--2-----2----7--------|
--4--------2------0-----|-----0-----2------------|-------------------------|
-----0--2------------4--|--4---------------------|-------------------------|
------------------------|------------------------|-------------------------|


  E  E  E  E  Q    S  S S S    E  E  E  Q.     E  E     E  E  E  Q.     E  E   
--------5--0--L----3p-2-----|--2--------0------------|--------5--0---------0--|
-----3-----3--L---------3---|--------0---------3--2--|--2--3------------3-----|
--------------------------2-|--0--2-----2------------|-----------2------------|
----------------------------|------------------------|--4---------------------|
--2-------------------------|------------------------|------------------------|
----------------------------|------------------------|------------------------|


  E  E  E  Q    E  E  E     E  E  E  E  Q    Q        W                  
--2--------0-------9--5--|--------2--3--5----9----|--10----------------||
--------0----------------|-----3------------------|---7----------------||
--0--2-----2----7--------|--0---------------------|---7----------------||
-------------------------|------------------------|--------------------||
-------------------------|------------------------|--------------------||
-------------------------|------------------------|--------------------||

Duration Legend
---------------
W - whole
H - half
Q - quarter
E - 8th
S - 16th
T - 32nd
X - 64th
. - note dotted
|-n-| - n-tuplets

Tablature Legend
----------------
L - tied note
x - dead note
g - grace note
(n) - ghost note
> - accentuded note
NH - natural harmonic
AH - artificial harmonic
TH - tapped harmonic
SH - semi harmonic
PH - pitch harmonic
h - hammer on
p - pull off
b - bend
br - bendRelease
pb - preBend
pbr - preBendRelease
brb - bendReleaseBend
\n/ - tremolo bar dip
\n - tremolo bar dive
-/n - tremolo bar Release up
/n\ - tremolo bar inverted dip
/n - tremolo bar return
-\n - tremolo bar Release down
S - shift slide
s - legato slide
/ - slide into from below or out of upwards
\ - slide into from above or out of downwards
~ - vibrato
W - wide vibrato
tr - trill
TP - tremolo picking
T - tapping
S - slap
P - pop
< - fade in
^ - brush up
v - brush down

Login or Register to remove this ad.