Ads

JAWAKARAKANA JIKAN (Honey and Clover) Guitar Tab

Submitted: Mar 04, 2020 by chimatte (Last updated: Mar 06, 2020)

5
Average: 5 (2 votes)
Download | Listen
Game: Honey and Clover
Composer(s): Yuzo Hayashi
Style: Fingerstyle

AutoScroll: Slow | Medium | Fast
                               YAWARAKANA JIKAN                                 


Traccia 1
     E  E  Q    E  E  E  E     E  E  Q    E  E  E  E   
E||-------------------------|-------------------------|
B||--2--L-------------------|--2--L--L-------------2--|
G||--2--L--2----4--L--L--2--|--------4-------2--4-----|
D||--4--L--0----2--L--2--L--|-----2-------2-----------|
A||-----0----------2--------|--0----------------------|
D||--0----------2-----------|-------------------------|


  E  E  E  E  E  E  E  E     E  E  E  E  E  E  E  E   
--------------------------|--------------------0-----|
--2--L--------------------|-----------0--2--L--L--L--|
--2--L--2--L--4--L--L--2--|--2--L--2--------------2--|
--4--L--------2--L--2--L--|-----2-----------2--------|
-----0--L--0-----2--------|--0-----------------------|
--0-----------2-----------|--------------------------|


  E  E  E  E  E  E  E  E     E  E  E  E  E  E  E  E   
--------------------0-----|--------------------0-----|
--0--L--2--L--------------|--0--L--2--L--------------|
--------2--------------2--|--2--L-----------------2--|
-----2-----2-----2--------|--------4--L-----2--------|
--0-----------0--L--0--L--|-----0--5--0-----0--L--L--|
--------------------------|--0-----------0-----------|


  E  E  E  E  E  E  E  E     E  E  E  E  E  E  E  E   
--------------------0-----|--------------------------|
--0--L--2--L--------------|--0--L--2--L-----2--3--2--|
--------2--------------2--|--2--L--------------------|
-----2-----2-----2--------|--------4--L--------------|
--0-----------0--L--0--L--|-----0--5--0--------------|
--------------------------|--0-----------0--L--L--L--|


  E  E  E  E  E  E  E  E     E  E  E  E  Q    E  E     Q    E  E  E  E  E  S S  
--------------------------|-------------------------|--------------------------|
--0--L--L--L--------------|-----0-------------------|--0----0--L---------------|
--------------6--L--L-----|--------1-------------2--|-------------------1--2-1-|
--------2--4-----------6--|--7--------2--L----4-----|--1-------1--4--1--L--1-L-|
-----2--------------4--L--|-----0--L--L-------------|-------------2------------|
--2-----------3--6--------|--4----------------------|--------------------------|


  E  E  E  E  E  E  E  E     E  E  E  E  E  E  E  E   
--------------------0-----|--------------------0-----|
--------------------------|--0--L--2--L--------------|
--L--L--------1--L-----2--|--------2--------------2--|
--------2--4-----2--------|-----2-----2-----2--------|
-----2--------------------|--0-----------0--L--0--L--|
--2-----------------------|--------------------------|


  E  E  E  E  E  E  S S S S    E  E  E  E  E  E  E  E   
------------------------0-5-|--4--L--4--L--4--2--4--5--|
--0--L--2--L--------2-3-----|--------------------------|
--------2--L----------------|--------4-----2--L--L--L--|
--------4-----4-------------|-----6-----6--------------|
-----0-----0-----0--L-L-L-L-|--4-----------------------|
--0-------------------------|--------------------------|


  E  E  E  E  E  E  S S S S    E  E  E  E  E  E  E  E   
--0--L--L--L------------0-5-|--4--L--4--L--4--2--4--5--|
--------------0-----2-3-----|--------------------------|
--------2-------------------|--------4-----2--L--L--L--|
-----2-----2-----2--L-L-L---|-----6-----6--------------|
--0-------------------------|--4-----------------------|
----------------------------|--------------------------|


  E  E  E  E  E  E  E  E     E  E  E  E  E  E  E  E   
--7--L--L--L--------------|--------------------------|
--6--L--L--L--------------|--0--L--L--L--------3--L--|
--------------------------|--------------------------|
--------0-----2-----0-----|--3-----0-----2-----0-----|
-----0-----0-----0-----0--|-----0-----0-----0-----0--|
--0-----------------------|--0-----------------------|


  E  E  E  E  E  E  E  S S    E  E  E  E  E  E  S S S S  
---------------------------|----------------------------|
--2--L--------3--L--2--0---|------------------------2-2-|
--------2--L--1--L-------2-|--L--L--2-----0--L--2-4-----|
--4--L--0-----------2--L-L-|-----2-----2-----2--5-L-L-L-|
-----0-----0-----2---------|--0-----------0-------------|
--0-----------2------------|----------------------------|


  E  E  E  E  E  E  E  S S    E  E  E  S S E  E  E  S S  
---------------------------|---------------2--L--0------|
--L--L--------3--L--2--0---|--------------------------0-|
--------2--L--1--L-------2-|--L--L--2------0-----0--2---|
--------0-----------2--L-L-|-----2-----2------2---------|
-----0-----0-----2---------|--0----------0--------------|
--0-----------2------------|----------------------------|


  E  E  E  E  E  E  E  S S    E  E  E  E  E  E  S S S S  
---------------------------|----------------------------|
--2--L--------3--L--2--0---|------------------------2-2-|
--------2--L--1--L-------2-|--L--L--2-----0--L--2-4-----|
--------0-----------2--L-L-|-----2-----2-----2--5-L-L-L-|
-----0-----0-----2---------|--0-----------0-------------|
--0-----------2------------|----------------------------|


  E  E  E  E  E  E  E  E     E  E  E  E  H          
--------------------------|-----------------------||
--L--L--------3--L--2--0--|--------------2--------||
--------2--L--1--L--------|--2--L-----2--2--------||
--------0-----------2--L--|-----2--4--L--2--------||
-----0-----0-----2--------|--0-----5-----0--------||
--0-----------2-----------|-----------------------||




Duration Legend
---------------
W - whole
H - half
Q - quarter
E - 8th
S - 16th
T - 32nd
X - 64th
. - note dotted
|-n-|  - n-tuplets


Tablature Legend
----------------
L - tied note
x - dead note
g - grace note
(n) - ghost note
> - accentuded note
NH - natural harmonic
AH - artificial harmonic
TH - tapped harmonic
SH - semi harmonic
PH - pitch harmonic
h - hammer on
p - pull off
b - bend
br - bendRelease
pb - preBend
pbr - preBendRelease
brb - bendReleaseBend
\n/ - tremolo bar dip
\n - tremolo bar dive
-/n - tremolo bar Release up
/n\ - tremolo bar inverted dip
/n - tremolo bar return
-\n - tremolo bar Release down
S - shift slide
s - legato slide
/ -  slide into from below or out of upwards
\ -  slide into from above or out of downwards
~ - vibrato
W - wide vibrato
tr - trill
TP - tremolo picking
T - tapping
S - slap
P - pop
< - fade in
^ - brush up
v - brush down
Login or Register to remove this ad.

1 comment on JAWAKARAKANA JIKAN

Tablature with video.

The following guitar performance is associated with this tablature.https://www.gametabs.net/recording/chimatte/jawakarakana-jikan