Ads

Dear You (Higurashi no Naku Koro Ni) Guitar Tab

Submitted: Jun 02, 2010 by diralark

5
Average: 5 (12 votes)
Download | Listen
Game: Higurashi no Naku Koro Ni
Composer(s): Kenji Kawai
Style: Arrangement, Fingerstyle

AutoScroll: Slow | Medium | Fast
                 Dear You  from Higurashi no Naku Koro Ni                                              

Music by Kenji Kawai >> piano score by Pico >> tab by Diralark


Guitar, tempo 78

      E  E  Q    E  E  Q       E  E  Q    E  E  Q       E  E  Q    E  E  Q     
E||-------------------------|------------------------|------------------------|
B||-------------------------|-------------------0----|------------------------|
G||*--------0---------------|----------------0-------|--------0---------------|
D||*-----2-------------2----|-----0--3---------------|-----2-------------2----|
A||---0-------------3-------|-------------3----------|--0-------------3-------|
E||--------------1----------|--3---------------------|-------------1----------|


                        | 1st ending   
  E  E  Q    E  E  Q       E  E  S S E  E  E  S S E     E  E  S S E  E  E  Q     
------------------------|--------0------------0------|--------0---------3-------|
-------------------0----|--3-------3-1--3-------3-1--|--3-------3-1--1-----3----|
----------------0-------|--------0---------0---------|------------------0--4----|
-----0--3---------------|-----2---------------2------|-----0--3-----------------|
-------------3----------|--0-------------------------|---------------3----------|
--3---------------------|---------------1------------|--3-----------------------|

                                                         | 2nd ending
  E  E  S S E  E  E  S S E     E  E  S S E  E  E  Q         E  E  S S E  E  E  S S E   
--------0------------0------|--------0------------------||--------0------------0------|
--3-------3-1--3-------3-1--|--3-------3-1--1-----0-----||--3-------3-1--3-------3-1--|
--------0---------0---------|------------------0-------*||--2-----0---------0---------|
-----2---------------2------|-----0--3-----------------*||-----2---------------2------|
--0-------------------------|---------------3-----------||--0-------------------------|
---------------1------------|--3------------------------||---------------1------------|


  E  E  S S E  E  E  Q       E  E  S S E  E  E  S S E     E  E  S S E  E  E  Q     
--------0---------3-------|--------0------------0------|--------0-----------------|
--3-------3-1--1-----3----|--3-------3-1--3-------3-1--|--3-------3-1--1-----0----|
--0------------0--0--4----|--2-----0---------0---------|--0------------0--0-------|
-----0--3-----------------|-----2---------------2------|-----0--3-----------------|
---------------3----------|--0-------------------------|---------------3----------|
--3-----------------------|---------------1------------|--3-----------------------|


  E  E  S S E  E  E  S S E     E  E  S S E  E  E  Q       E  E  S S E  E  E  S S E   
--------0------------0------|--------0---------3-------|--------0------------0------|
--3-------3-1--3-------3-1--|--3-------3-1--1-----3----|--3-------3-1--3-------3-1--|
--2-----0---------0---------|--0------------0--0--4----|--2-----0---------0---------|
-----2---------------2------|-----0--3-----------------|-----2---------------2------|
--0-------------------------|---------------3----------|--0-------------------------|
---------------1------------|--3-----------------------|---------------1------------|


  E  E  S S E  E  E  E  E     E  E  E  E  E  E  E  E     E  E  E  E  E  E  E  E   
--------0------------------|--------------------------|-----------0--0-----------|
--3-------3-1--1-----0-----|--------------1--------1--|--3--3--3-----------0-----|
--0------------0--0-----0--|--0-----0--0--------------|-----------------0-----0--|
-----0--3------------------|-----2--------------2-----|-----0--3-----------------|
---------------3-----------|--0--------------3--------|--------------3-----------|
--3------------------------|--------------1-----------|--3-----------------------|


  E  E  E  E  E  E  E  E     E  E  E  E  E  E  Q       E  E  E  E  E  E  E  E   
--------------------------|-----------3--0----------|--------------------------|
-----------------1--1--3--|--3--3--3-----------0----|--------------1--1--1--1--|
--0-----0--0--------------|-----------------0-------|--0-----0--0--------------|
-----2--------------2-----|-----0--3----------------|-----2--------------2-----|
--0--------------3--------|--------------3----------|--0--------------3--------|
--------------1-----------|--3----------------------|--------------1-----------|


  E  E  E  E  E  E  E  E     E  E  Q    E  E  E  E     E  E  E  E  E  E  E   E   
-----------0--0-----------|-------------------------|-----------3--0--------15--|
--3--3--3-----------0-----|----------------1--1--3--|--3--3--3-----------0------|
-----------------0-----0--|--0-----0----------------|-----------------0---------|
-----0--3-----------------|-----2-------------2-----|-----0--3------------------|
--------------3-----------|--0-------------3--------|--------------3------------|
--3-----------------------|-------------1-----------|--3------------------------|


  E  E  E  E  E  E  E  E     E  E  Q    E  E  E  E     E  E  E  E  E  E  E  E   
-----0-----3--3-----------|-------------------------|--------------------------|
--8--------------1-----3--|-------------------0-----|--------------------------|
--------0-----------------|----------------0-----0--|--0-----0--0--0-----------|
--------------------2-----|--0--0--3----2--0--2-----|-----2--------------2--0--|
--0--7-----------3--------|-----3--5----3-----------|--0--------------3--------|
--------------1-----------|--3----------------------|--------------1-----------|


  E  E  E  E  E  E  E  E       E  E  S S E  E  E  S S E     E  E  S S E  E  E  E  E   
--------------------------||---------0------------0------|--------0---------3--------|
--------------1-----0--1--||---3-------3-1--3-------3-1--|--3-------3-1--1-----3-----|
-----------------0--------||*--2-----0---------0---------|--0------------0--0--4--0--|
--0--0--3--0--------------||*-----2------2--------2------|-----0--3---0--------------|
-----3--------3-----------||---0----------------------3--|---------------3-----------|
--3-----------------------||----------------1------------|--3------------------------|


                            | 1st ending                  | 2nd ending
  E  E  S S E  E  E  S S E     E  E  S S E  E  E  E  E       E  E  S S E  E  E  S S S S  
--------0------------0------|--------0-------------------||--------0----------------0---|
--3-------3-1--3-------3-1--|--3-------3-1--1-----0------||--3-------3-1--1-----0-3---6-|
--2-----0---------0---------|--0------------0--0-----0--*||--0------------0--0------0---|
-----2------2--------2------|-----0--3---0--------------*||-----0--3---0----------------|
--0----------------------3--|---------------3------------||---------------3-------------|
---------------1------------|--3-------------------------||--3--------------------------|


                VIII            V   [ ] V                      V        VIII               
  E  E  E   E   E   E  E  E     S S S   S E  E  E  E  E  E     E  E  E  E    E   E  E  E   
-----8--8------10---8-----8--|------------------------8--7--|--8--5-----8----8---------8--|
--8--------------------------|--5-6-0--------5--5-----0-----|-------------------10--------|
--------0--------------9-----|----------5-7--5--5--------0--|-----------------------9-----|
-----------10----------------|--5---0--------------5--------|--------5--------------------|
--0-------------8------------|---------------5--------------|----------------8------------|
--------------------------8--|------------------8-----------|--5-----------------------8--|


   X                    -]                               VIII           
   S  S  E   E   E   S  S  E   E   E      E   E  E   E   E    E  E  E   
--------10--10------12-13-15--15--12--|--15--12-----10--10----------8--|
--12-13------------------------0------|----------------------10--------|
------------10--12---------0-------0--|----------0---------------9-----|
--------------------10----------------|--------------------------------|
--10----------------------------------|---0--------------8-------------|
--------10------10--------------------|-----------------------------8--|


   X                     -]                            VIII           
   S  S  E   E   E   E   E   E   E      E   E  E   E   E    E  E  E   
--------10--10--13--12------12--10--|--12--17-----12--10----------8--|
--12-13----------------------0------|----------------------10--------|
------------10-------------------0--|----------0---------------9-----|
--------------------10--------------|--------------------------------|
--10--------------------10----------|---0--------------8-------------|
--------10--------------------------|-----------------------------8--|


   X                   -]                      VIII                                VIII           
   E   E   E   E   E   E  E  E     E  E  E  E  E     E  E   E      E   E   E   E   E    E  E  E   
--10----------10----------------|-----0--------8--------8--10--|--10--10--10--12--12-------------|
------13----------13------0--8--|--8--------8------------------|------------------------------8--|
----------10-----------------0--|--------0--------------9------|---0-----------------------------|
------------------10------------|-------------------10---------|-------0-------------------9-----|
--10------------------10--------|--0-----------8---------------|-----------8-----------10--------|
--------------10----------------|------------------------------|-------------------8-------------|


               VIII               X                    -]                    VIII                  
  E  S S E  E  E    E  E   E      E   S  S  E   E   E  E  E  E     E  S S E  E    S  S  E   E  E   
-----0--------------8--8--10--|--10--------10--15--12-----------|-----0------8----8-10-13--12--8--|
--8----6-8--------------------|------12-13----------------0--8--|--8----6-8-----------------------|
---------0-------------9------|------------10----------0-----0--|---------0-----------------9-----|
------------------------------|--------------------10-----------|---------------------------------|
--0---------7--8--------------|--10-----------------------------|--0--------------8---------------|
--------------------8---------|------10-------------------------|-----------------------8---------|


                                                      VIII                  X      VIII           
   E  E   E   E   E  E  E   E      E   E  E   E   E   E   E   E      E  E   E   E  E    E  E  E   
--10--8--10--13--12--------15--|--15--12-----15--15-------0--10--|--10--8------10--8-------------|
------------------------0------|---------------------13----------|-------------------------0--1--|
---0-----10----------0---------|----------0----------------------|---0-----10-----------0-----0--|
------0------------------------|---------------------------------|------0------------------------|
-------------------------------|---0-----------------------------|-------------------------------|
------------------8------------|-----------------13-----------8--|-----------------8-------------|


  E  E  S S E  E  E  S S E     E  E  S S E  E  E  E  E     E  E  S S E  E  E  S S E   
--------0------------0------|--------0---------3--------|--------0------------0------|
--3-------3-1--3-------3-1--|--3-------3-1--1-----3-----|--3-------3-1--3-------3-1--|
--2-----0---------0---------|--0------------0--0--4--0--|--2-----0---------0---------|
-----2------2--------2------|-----0--3---0--------------|-----2------2--------2------|
--0----------------------3--|---------------3-----------|--0----------------------3--|
---------------1------------|--3------------------------|---------------1------------|


  E  E  S S E  E  E  E  E     E  E  E  E  S S S S E  E     E  E  E  E  E  E  E  E   
--------0------------------|-----0-----0--5-0---0-------|--0-----0--3--0-----------|
--3-------3-1--1-----0-----|--3-----3---------3---3-----|-----3--------------0-----|
--0------------0--0-----0--|--------0-------------------|-----------------0-----0--|
-----0--3---0--------------|-----2-----2--3-------2-----|-----0--3--0--------------|
---------------3-----------|--0---------------3------3--|--------------3-----------|
--3------------------------|----------------------------|--3-----------------------|


  E  E  E  E  S S S S E  E     E  E  E  E  E  E  E  E     E  E  E  E  E  E  E  E   
-----0-----0--5-0---0-------|--------------------------|--------------------------|
--3-----3---------3---3-----|--3--1-----3--1-----0-----|--------------------------|
--------0-------------------|-----------------0-----0--|--------0-----------------|
-----2-----2--3-------2-----|-----0--3--0--------------|-----2-----2--------2-----|
--0---------------3------3--|--------------3-----------|--0--------------3-----3--|
----------------------------|--3-----------------------|--------------1-----------|


  E  E  E  E  E  E  E  E     E  E  E  E  E  E  E  E     E  E  E  E  H          
--------------------------|--------------------------|-----------------------||
--------------------0-----|--3-----------1-----------|--0--------1--1--------||
-----------------0-----0--|--------0-----------------|--------------0--------||
-----0--3--0--------------|-----2-----2--------2-----|-----0--3--0-----------||
--------------3-----------|--0--------------3-----3--|--------------3--------||
--3-----------------------|--------------1-----------|--3--------------------||

Legend
---------------
W - whole
H - half
Q - quarter
E - 8th
S - 16th
. - note dotted
L - tied note
Login or Register to remove this ad.

7 comments on Dear You

At first, I thought it was

5

At first, I thought it was like the other two on the site, but after Bar 29, I was amazed!

I was going to tab the arpeggio version of the bass as an extra to my tab, but I wouldn't have uploaded it.

I'll just take some scribits from yours, change mine, then have fun playing the version I wanted. The only thing is that it gets pretty high near the end. May I suggest dropping some notes down an octave.

Overall, AMAZING! 5/5.
Way better than mine. :D

Finally the 2nd part (from

Finally the 2nd part (from 34th to 49th bars) became playable for me, but I admit I needed to work skill with fingers to success it ^^. Especially with my nylon guitar (without cutaway) it 's a bit unconfortable. Also I ask myself : Is it really unconfortable or I need become a better guitarist ? Well can't answer that myself coz im a beginer guitarist and I guess (hope) next year or later this tab will be too easy for me haha.. Thanks for your appreciation :)

I don't have a cutaway

I don't have a cutaway either, and even worse I play on a steel-string. It gets super hard to press any 3+ notes at the same time in frets above 12. I can lower the octave myself, and play it without spraining a finger. ;)

Very nice

5

Very nice, good job.. I'll be learning this for a while, hopefully I'll be able to play this at the correct speed someday.

so insanely fucking hard

so insanely fucking hard

Yeah I'm a sadistic :D

Yeah I'm a sadistic :D

Amazing

5

Amazing