Study x Study (High School DxD) Guitar Tab

Submitted: Dec 23, 2013 by corntastic

3
Average: 3 (3 votes)
Download | Listen
Game: High School DxD
Composer(s): Ryosuke Nakanishi
Style: Transcription

AutoScroll: Slow | Medium | Fast
Study x Study 
Highschool DxD
Kyo Takada, StylipS
corntastic
15/12/13

Voice:
e--1--1--1-------1--1------1--1-1-1-1--3--1--4-3-1-4-3-1-1----------------
B-----------1-4--------1-4------------------------------------------------
G-------------------------------------------------------------------------
D-------------------------------------------------------------------------
A-------------------------------------------------------------------------
E-------------------------------------------------------------------------

Wooey:
e--5--5--5-6-8-8------4------6--6--6-6-8-10-8-----------------------------
B-----------------6-8---8-6--------------------6-6---6-6-6-6--------------
G--------------------------------------------------5----------------------
D-------------------------------------------------------------------------
A-------------------------------------------------------------------------
E-------------------------------------------------------------------------

e--------------------4--------8L-------6--4--6----------------------------
B----6-6----6-6--6-8---8-6----------------------6-----8--8----------------
G--5------5----------------------------------------5----------------------
D-------------------------------------------------------------------------
A-------------------------------------------------------------------------
E-------------------------------------------------------------------------

______________________________________________________________________________________

Voice:
e------------------------------------(1--1--1--4----6)--------------------
B--4--3-4-3-4-3-4-3-4-3-4-3-4-3-1-----------------------------------------
G---------------------------------3---------------------------------------
D-------------------------------------------------------------------------
A-------------------------------------------------------------------------
E-------------------------------------------------------------------------

e---------------1--3--1----------1--3----1--1--(2--2--4)------------------
B--4--3-4-3-4-3----------4----4-------------------------------------------
G-------------------------------------------------------------------------
D-------------------------------------------------------------------------
A-------------------------------------------------------------------------
E-------------------------------------------------------------------------

e--3--1-3-1-3-1-3-1-3-1-3-1-3-1------(4--4--4--6----6)--------------------
B-------------------------------4-4---------------------------------------
G-------------------------------------------------------------------------
D-------------------------------------------------------------------------
A-------------------------------------------------------------------------
E-------------------------------------------------------------------------

e--3--1-3-1-3-1-3-1-3-1-3-1-3-4--6--4--3--4--6----------------------------
B-------------------------------------------------------------------------
G-------------------------------------------------------------------------
D-------------------------------------------------------------------------
A-------------------------------------------------------------------------
E-------------------------------------------------------------------------

______________________________________________________________________________________


e------1---1-1-----------1-----------3-3--1--3--4--6----3--4--6-----------
B--3-4---4------4--3--4---------------------------------------------------
G-----------------------------3-3-----------------------------------------
D-------------------------------------------------------------------------
A-------------------------------------------------------------------------
E-------------------------------------------------------------------------

e--4-4-4-4-3-4-6--4-3-4--3-3---(1)---------------------1--1-1-3-4-3-4-8---
B---------------------------------------3--3-3-3-3-3-3--------------------
G---------------------------3-3-3-3-3-3-----------------------------------
D-------------------------------------------------------------------------
A-------------------------------------------------------------------------
E-------------------------------------------------------------------------

______________________________________________________________________________________


e------5--5--5--5-5--5-5-5-7-9----5--5--5--5-5--5-5-5-7-5-----------------
B--5-7--------------------------------------------------------------------
G-------------------------------------------------------------------------
D-------------------------------------------------------------------------
A-------------------------------------------------------------------------
E-------------------------------------------------------------------------

e----------5------------5----5-5-5-5---5-7-9-7--7-------------------------
B--------7------------5--------------7------------------------------------
G--7-7-7--------6-6-6-----------------------------------------------------
D-------------------------------------------------------------------------
A-------------------------------------------------------------------------
E-------------------------------------------------------------------------

e------5--5--5--5-5--5-5-5-7-9----5--5--5--5-10--9-7-9--------------------
B--5-7--------------------------------------------------------------------
G-------------------------------------------------------------------------
D-------------------------------------------------------------------------
A-------------------------------------------------------------------------
E-------------------------------------------------------------------------

e----------5----9--9-7-5--4--5-(4--5)-7--9--9--7s5--5---------------------
B--------7----------------------------------------------------------------
G--7-7-7------------------------------------------------------------------
D-------------------------------------------------------------------------
A-------------------------------------------------------------------------
E-------------------------------------------------------------------------


______________________________________________________________________________________

For legibility, I have seperated these next 2 measures into 4. The measures
bordered by "|" are meant to be played together as 1.

|e--5--5--7-5---------------5--5--7-5--------------------------------------|
|B-------------------------------------------------------------------------|
|G-------------------------------------------------------------------------|
|D-------------------------------------------------------------------------|
|A-------------------------------------------------------------------------|
|E-------------------------------------------------------------------------|
|									   |
|e-------------5----5--5-5-------------5-5---5-5-5-5-----------------------|
|B----------------7------------------------7-------------------------------|
|G-------------------------------------------------------------------------|
|D-------------------------------------------------------------------------|
|A-------------------------------------------------------------------------|
|E-------------------------------------------------------------------------|


|e--5--5--7-5---------------5--5--7-5-(7--7-7)*----------------------------|
|B-------------------------------------------------------------------------|
|G-------------------------------------------------------------------------|
|D-------------------------------------------------------------------------|
|A-------------------------------------------------------------------------|
|E-------------------------------------------------------------------------|
|									   |
|e-------------5----5--5-5-------------------------------------------------|
|B----------------7--------------------------------------------------------|
|G-------------------------------------------------------------------------|
|D-------------------------------------------------------------------------|
|A-------------------------------------------------------------------------|
|E-------------------------------------------------------------------------|
Repeat everything and *Play those e7's the second time


______________________________________________________________________________________


e--5--5--7----------------------------------------------------------------
B-------------------------------------------------------------------------
G-------------------------------------------------------------------------
D-------------------------------------------------------------------------
A-------------------------------------------------------------------------
E-------------------------------------------------------------------------

Voice:===============| Wooey:==========================| 
e--5--5--5-------5--5------5------5------5--8-7-5-8-7-5-------------------
B-----------5-8--------5-8----5-8----5-8----------------------------------
G-------------------------------------------------------------------------
D-------------------------------------------------------------------------
A-------------------------------------------------------------------------
E-------------------------------------------------------------------------

Voice:
e--5--5--5--7-8--7--5-----------------------------------------------------
B-------------------------------------------------------------------------
G-------------------------------------------------------------------------
D-------------------------------------------------------------------------
A-------------------------------------------------------------------------
E-------------------------------------------------------------------------

Wooey:
e-------------------------------------------------------------------------
B-------------------------------------------------------------------------
G-------------------------------------------------------------------------
D--19--19-19-21----------19-----------------------------------------------
A----------------19--21---------------------------------------------------
E-------------------------------------------------------------------------

e-------------------------------------------------------------------------
B------------------------------------------------------19-----19-21-------
G------------------------18-----18-19--18-19-21--19-21-----21-------------
D--19--18--19--21--19-21-----21-------------------------------------------
A-------------------------------------------------------------------------
E-------------------------------------------------------------------------

e------------------19-----19-21--19-21-22--21--22--24----24--24--24-------
B--19-21-22--21-22-----22-------------------------------------------------
G-------------------------------------------------------------------------
D-------------------------------------------------------------------------
A-------------------------------------------------------------------------
E-------------------------------------------------------------------------


______________________________________________________________________________________

Voice:
e------5--5--5--5-5--5-5-5-7-9----5--5--5--5-5--5-5-5-7-5-----------------
B--5-7--------------------------------------------------------------------
G-------------------------------------------------------------------------
D-------------------------------------------------------------------------
A-------------------------------------------------------------------------
E-------------------------------------------------------------------------

e----------5------------5----5-5-5-5---5-7-9-7--7-------------------------
B--------7------------5--------------7------------------------------------
G--7-7-7--------6-6-6-----------------------------------------------------
D-------------------------------------------------------------------------
A-------------------------------------------------------------------------
E-------------------------------------------------------------------------

e------5--5--5--5-5--5-5-5-7-9----5--5--5--5-10--9-7-9--------------------
B--5-7--------------------------------------------------------------------
G-------------------------------------------------------------------------
D-------------------------------------------------------------------------
A-------------------------------------------------------------------------
E-------------------------------------------------------------------------

e----------5----9--9-7-5--4--5-(4--5)-7--9--9--7s5--5---------------------
B--------7----------------------------------------------------------------
G--7-7-7------------------------------------------------------------------
D-------------------------------------------------------------------------
A-------------------------------------------------------------------------
E-------------------------------------------------------------------------

______________________________________________________________________________________


|e--5--5--7-5---------------5--5--7-5--------------------------------------|
|B-------------------------------------------------------------------------|
|G-------------------------------------------------------------------------|
|D-------------------------------------------------------------------------|
|A-------------------------------------------------------------------------|
|E-------------------------------------------------------------------------|
|									   |
|e-------------5----5--5-5-------------5-5---5-5-5-5-----------------------|
|B----------------7------------------------7-------------------------------|
|G-------------------------------------------------------------------------|
|D-------------------------------------------------------------------------|
|A-------------------------------------------------------------------------|
|E-------------------------------------------------------------------------|


|e--5--5--7-5---------------5--5--7-5--------------------------------------|
|B-------------------------------------------------------------------------|
|G-------------------------------------------------------------------------|
|D-------------------------------------------------------------------------|
|A-------------------------------------------------------------------------|
|E-------------------------------------------------------------------------|
|									   |
|e-------------5----5--5-5-------------------------------------------------|
|B----------------7--------------------------------------------------------|
|G-------------------------------------------------------------------------|
|D-------------------------------------------------------------------------|
|A-------------------------------------------------------------------------|
|E-------------------------------------------------------------------------|
Login or Register to remove this ad.