Ads

Grass (Heroes of Might and Magic II) Guitar Tab

Submitted: Feb 28, 2011 by Bhael

5
Average: 5 (10 votes)
Download | Listen
Game: Heroes of Might and Magic II
Composer(s): Paul Anthony Romero
Style: Arrangement, Fingerstyle

Click here for a video example.

AutoScroll: Slow | Medium | Fast
                                    Grass                                       
                          Heroes of Might & Magic II
                             Paul Anthony Romero

Capo on the third fret



     E  E  E  E  H           E  E  E  E  H           E  E  E  E  H         
E||-----------------------|-----------------------|--------------0--------|
B||--------0--1-----------|--------0--1-----------|--------0--1-----------|
G||--------------2--------|--------------2--------|-----------------------|
D||-----2-----------------|-----2-----------------|-----0-----------------|
A||--0--------------------|--0--------------------|-----------------------|
E||-----------------------|-----------------------|--3--------------------|


  E  E  E  E  H           E  E  E  E  H           E  E  E  E  H         
-----------------------|-----------------------|--------------0--------|
--------3--1-----------|--------0--1-----------|--------0--1-----------|
--------------2--------|--------------2--------|-----------------------|
-----0-----------------|-----------------------|-----------------------|
-----------------------|-----3-----------------|-----3-----------------|
--3--------------------|--1--------------------|--1--------------------|


  E  E  E  E  H           E  E  E  E  E  E  E  E     E  E  E  E  E  E  E  E   
--------------1--------|--------0-----0-----------|--0-----------------------|
--------0--1-----------|-----------3-----3--1--0--|--------------------------|
-----------------------|--------------------------|--------2-----2-----2-----|
-----------------------|--------------------------|-----2-----2-----2-----2--|
-----2-----------------|-----2--------------------|--0-----------------------|
--0--------------------|--0-----------------------|--------------------------|


  E  E  E  E  E  E  E  E     E  E  E  E  E  E  E  E   
--------------------------|--0-----------------------|
--------------------3--1--|--------------------------|
--------2-----2-----------|--------0-----0-----0-----|
-----2-----2-----2--------|-----0-----0-----0-----0--|
--0-----------------------|--------------------------|
--------------------------|--3-----------------------|


  E  E  E  E  E  E  E  E     E  E  E  E  E  E  E  E   
--------------------------|--------------------------|
--------------------3--1--|--------------------0--1--|
--------0-----0-----------|--2-----------------------|
-----0-----0-----0--------|--------3-----3-----------|
--------------------------|-----3-----3-----3--------|
--3-----------------------|--1-----------------------|


  E  E  E  E  E  E  E  E     E  E  E  E  E  E  E  E     E  E  E  E  E  E  Q     
--------------------------|--------------------------|-------------------------|
--------------------0--1--|--------------------------|--------------------0----|
--2-----------------------|--1-----------------------|--------------2----------|
--------3-----3-----------|--------2-----2-----2-----|--------2----------------|
-----3-----3-----3--------|-----2-----2-----2-----2--|-----2-----2-----2-------|
--1-----------------------|--0-----------------------|--0----------------------|


  E  E  E  E  E  E  E  E     E  E  E  E  E  E  E  E   
--------------------------|--------------------------|
--1-----------------------|-----------------------3--|
--------2-----2-----2-----|--------2-----2-----2-----|
-----2-----2-----2-----2--|-----2-----2-----2--------|
--0-----------------------|--0-----------------------|
--------------------------|--------------------------|


  E  E  E  E  E  E  E  E     E  E  E  E  E  E  E  E   
--0-----------------------|--------------------------|
--------------------------|--------------------3--1--|
--------0-----0-----0-----|--------0-----0-----------|
-----0-----0-----0-----0--|-----0-----0-----0--------|
--------------------------|--------------------------|
--3-----------------------|--3-----------------------|


  E  E  E  E  E  E  E  E     E  E  E  E  E  E  E  E   
--------------------------|--------------------------|
--------------------3--1--|--------------------3--1--|
--2-----------------------|--2-----------------------|
--------3-----3-----------|--------3-----3-----------|
-----3-----3-----3--------|-----3-----3-----3--------|
--1-----------------------|--1-----------------------|


                                                     ^                        
  E  E  E  E  E  E  E  E     E  E  E  E  H           E  E  E  E  E  E  E  E   
--------------------------|-----------------------|--------------------------|
--------------------------|--------------0--------|--2-----------------------|
--1-----------------------|--2--------------------|--2-----2-----2-----2-----|
--------2-----2-----2-----|--------2--------------|--2--2-----2-----2-----2--|
-----2-----2-----2-----2--|-----2-----2-----------|--0-----------------------|
--0-----------------------|--0--------------------|--------------------------|


  E  E  E  E  E  E  E  E     E  E  E  E  E  E  E  E   
--------------------------|--------------0-----------|
--------------------0-----|--0-----------------------|
--------2-----2--------2--|--------------------------|
-----2-----2-----2--------|--------2-----------2-----|
--0-----------------------|-----2-----2-----2-----2--|
--------------------------|--0-----------------------|


  E  E  E  E  E  E  E  E     E  E  E  E  E  E  E  E   
--------------------------|--------------------0--1--|
--------------------3--2--|--3-----3-----3-----------|
--------------------------|-----2-----2-----2--------|
--------2-----2-----------|--0-----------------------|
-----2-----2-----2--------|--------------------------|
--0-----------------------|--------------------------|


  E  E  E  E  E  E  E  E     E  E  E  E  E  E  E  E   
--------------------0--1--|--------------------0--1--|
--3-----3-----3-----------|--3-----3-----3-----------|
-----2-----2-----2--------|-----2-----2-----2--------|
--0-----------------------|--0-----------------------|
--------------------------|--------------------------|
--------------------------|--------------------------|


  E  E  E  E  E  E  E  E     E  E  E  E  E  E  E  E   
--0-----------------------|--------------0-----------|
--------------3-----1--0--|--1-----------------------|
--------------------------|--------2-----------2-----|
--------2-----------------|-----2-----2-----2-----2--|
-----2-----2-----2--------|--0-----------------------|
--0-----------------------|--------------------------|


  E  E  E  E  E  E  E  E     E  E  E  E  E  E  E  E   
--------------------------|--0-----------------------|
--------------------3--1--|--------------------------|
--------2-----2-----------|--------0-----0-----0-----|
-----2-----2-----2--------|-----0-----0-----0-----0--|
--0-----------------------|--------------------------|
--------------------------|--3-----------------------|


  E  E  E  E  E  E  E  E     E  E  E  E  E  E  E  E   
--------------------------|--------------------------|
--------------------3--1--|--------------------0--1--|
--------0-----0-----------|--2-----------------------|
-----0-----0-----0--------|--------3-----3-----------|
--------------------------|-----3-----3-----3--------|
--3-----------------------|--1-----------------------|


  E  E  E  E  E  E  E  E     E  E  E  E  E  E  E  E     E  E  E  E  E  E  Q     
--------------------------|--------------------------|-------------------------|
--------------------0--1--|--------------------------|--------------------0----|
--2-----------------------|--1-----------------------|--------------2----------|
--------3-----3-----------|--------2-----2-----2-----|--------2----------------|
-----3-----3-----3--------|-----2-----2-----2-----2--|-----2-----2-----2-------|
--1-----------------------|--0-----------------------|--0----------------------|


  E  E  E  E  E  E  E  E     E  E  E  E  E  E  E  E   
--------------1-----------|--------------------0-----|
--1-----------------------|-----------------------3--|
--------------------------|--------------------------|
--------3-----------3-----|--------3-----3-----------|
-----3-----3-----3-----3--|-----3-----3-----3--------|
--1-----------------------|--1-----------------------|


  E  E  E  E  E  E  E  E     E  E  E  E  E  E  E  E   
--0-----------------------|--------------------------|
--------------------------|--------------------3--1--|
--------0-----0-----0-----|--------0-----0-----------|
-----0-----0-----0-----0--|-----0-----0-----0--------|
--------------------------|--------------------------|
--3-----------------------|--3-----------------------|


  E  E  E  E  E  E  E  E     E  E  E  E  E  E  E  E   
--------------------0--1--|--------------------0--1--|
--3-----3-----3-----------|--3-----3-----3-----------|
-----2-----2-----2--------|-----2-----2-----2--------|
--0-----------------------|--0-----------------------|
--------------------------|--------------------------|
--------------------------|--------------------------|


  E  E  E  E  E  E  E  E     E  E  E  E  E  E  E  E   
--------------------------|--------------------------|
--0-----------------------|--1-----------3-----------|
--------------------------|--------------------------|
--------2-----2-----2-----|--------2-----------2-----|
-----2-----2-----2-----2--|-----2-----2-----2-----2--|
--0-----------------------|--0-----------------------|


  E  E  E  E  E  E  E  E     E  E  E  E  E  E  E  E   
--0-----------------------|--------------------------|
--------------------------|--------------------3--1--|
--------2-----2-----2-----|--------2-----2-----------|
-----2-----2-----2-----2--|-----2-----2-----2--------|
--0-----------------------|--0-----------------------|
--------------------------|--------------------------|


  E  E  E  E  E  E  E  E     E  E  E  E  E  E  E  E   
--0-----------------------|--------------------------|
--------------------------|--------------------3--1--|
--------0-----0-----0-----|--------0-----0-----------|
-----0-----0-----0-----0--|-----0-----0-----0--------|
--------------------------|--------------------------|
--3-----------------------|--3-----------------------|


  E  E  E  E  E  E  E  E     E  E  E  E  E  E  E  E   
--------------------------|--------------------------|
--------------------0--1--|--------------------0--1--|
--2-----------------------|--2-----------------------|
--------3-----3-----------|--------3-----3-----------|
-----3-----3-----3--------|-----3-----3-----3--------|
--1-----------------------|--1-----------------------|


  E  E  E  E  E  E  E  E     E  E  E  E  H           E  E  E  E  E  E  E  E   
--------------------------|-----------------------|--------------0-----------|
--------------------------|--------------0--------|-----------1-----1--------|
--1-----------------------|--2--------------------|--2-----2-----------2-----|
--------2-----2-----2-----|--------2--------------|-----2-----------------2--|
-----2-----2-----2-----2--|-----2-----2-----------|--0-----------------------|
--0-----------------------|--0--------------------|--------------------------|


       ^                                  
  Q    H.              W                  
-------0------------|--L----------------||
-------1------------|--L----------------||
-------2------------|--L----------------||
--L----2------------|--L----------------||
-------0------------|--L----------------||
--------------------|-------------------||




Duration Legend
---------------
W - whole
H - half
Q - quarter
E - 8th
S - 16th
T - 32nd
X - 64th
. - note dotted
|-n-|  - n-tuplets


Tablature Legend
----------------
L - tied note
x - dead note
g - grace note
(n) - ghost note
> - accentuded note
NH - natural harmonic
AH - artificial harmonic
TH - tapped harmonic
SH - semi harmonic
PH - pitch harmonic
h - hammer on
p - pull off
b - bend
br - bendRelease
pb - preBend
pbr - preBendRelease
brb - bendReleaseBend
\n/ - tremolo bar dip
\n - tremolo bar dive
-/n - tremolo bar Release up
/n\ - tremolo bar inverted dip
/n - tremolo bar return
-\n - tremolo bar Release down
S - shift slide
s - legato slide
/ -  slide into from below or out of upwards
\ -  slide into from above or out of downwards
~ - vibrato
W - wide vibrato
tr - trill
TP - tremolo picking
T - tapping
S - slap
P - pop
< - fade in
^ - brush up
v - brush down
Login or Register to remove this ad.

5 comments on Grass

:3

5

I like this very much! very well done!

Thanks a lot

Thanks a lot

Your welcome!

Your welcome!

this is beautiful great job

5

this is beautiful great job on this arrangement.

HoMM has some of the most

5

HoMM has some of the most beautiful and atmospheric music themes, and this tab captures that perfectly! Keep up the great work :)

Edit:
I can't play it as well as you but I gave it a shot!
https://soundcloud.com/mickegitarr/heroes-of-might-and-magic-ii-1