Ads

Main Theme (Halo) Guitar Tab

Submitted: Apr 21, 2012 by diralark

5
Average: 5 (6 votes)
Download | Listen
Game: Halo
Composer(s): Michael Salvatori, Martin ODonnel
Style: Arrangement, Fingerstyle

AutoScroll: Slow | Medium | Fast
          Main theme    from Halo (original)   -    PC/ Xbox game

Music by Martin O'Donnell & Michael Salvatori >> piano arr. by Devin Eastman >> guitar arr. by Diralark


 Solo Guitar, let ring 

 [4/4],Tempo:95                                                                          
     H.                  Q       Q    Q    Q    Q       H        H           Q    Q    Q    Q     
E||---------------------------|----------------------|--------------------|----------------------|
B||---------------------------|----------------------|--------------------|------------0----2----|
G||---------------------------|--0---------2----0----|--------------------|----------------------|
D||--2-------------------4----|-------4--------------|--4--------2--------|--L-------------------|
A||---------------------------|----------------------|--------------------|----------------------|
E||---------------------------|----------------------|--------------------|----------------------|


  [3/4]                                             [4/4]                                       
  H.              Q    Q    Q       H.              Q     Q    Q    Q       Q    Q    H         
---------------|-----------------|---------------|-----------------------|---------------------|
--3------------|--2---------2----|--0------------|-----------------------|---------------------|
---------------|-------2---------|---------------|-----------------------|--0----2-------------|
---------------|-----------------|---------------|-------------0----2----|------------4--------|
---------------|-----------------|---------------|--------2--------------|---------------------|
---------------|-----------------|---------------|-----------------------|---------------------|


                                               Fine/End (2nd time)                        
  Q    Q    Q    Q       Q    Q    H           W                   W                 
----------------------|---------------------|-------------------|-------------------|
----------------------|---------------------|-------------------|-------------------|
------------0---------|---------------------|-------------------|-------------------|
--L----2---------4----|--2----4----0--------|--2----------------|-------------------|
----------------------|---------------------|-------------------|-------------------|
----------------------|---------------------|-------------------|-------------------|


Tempo:85
           ^                                ^                    ^                    
  H        H           H.           Q       H        H           Q    Q    Q    Q     
--------------------|--4------------2----|--------------------|----------------------|
--5--------4--------|--5------------4----|--5--------4--------|--2-------------------|
--6--------4--------|--------------------|--6-----------------|--1----2--------------|
--------------------|--------------------|--------------------|------------4----2----|
--------------------|--------------------|--------------------|----------------------|
--------------------|--------------------|--------------------|----------------------|


  ^                    ^                                                                                
  H        H           H.           Q       H        H           H        H           W                 
--------------------|--------------------|--------------------|--------------------|-------------------|
--2--------0--------|--2-----------------|--------------------|--------------------|-------------------|
--1-----------------|---------------4----|--2--------1--------|--------------------|-------------------|
--------------------|--4-----------------|--4--------2--------|--L--------4--------|--L----------------|
--------------------|--------------------|--------------------|--------------------|-------------------|
--------------------|--------------------|--------------------|--------------------|-------------------|


                   [12/8]Tempo 126                                                            
  W                   E      E  E  Q.     H.              E  E  E  Q.     H.            
-------------------|-----------------------------------|-------------------------------|
-------------------|-----------------------------------|-------------------------------|
-------------------|-----------------------------------|-------------------------------|
-------------------|---------------2------L------------|-----------4------L------------|
-------------------|-----------------------------------|-------------------------------|
-------------------|--0------0--0----------------------|--0--0--0----------------------|


  E  E  E  Q.     H.              E  E  E  Q.     E  E  E  E  E  E     E  E  E  Q.     H.            
-------------------------------|------------------------------------|-------------------------------|
-------------------------------|------------------------------------|-------------------------------|
-----------0------L------------|-----------2---------2-----2--0-----|-------------------------------|
-------------------------------|------------------2-----2--------4--|--2--------2------L------------|
-------------------------------|------------------------------------|-------------------------------|
--0--0--0----------------------|--0--0--0---------------------------|--0--0--0----------------------|


  E  E  E  H.           Q.        E  E  E  H.           Q.        E  E  E  Q.     E  E  E  E  E  E   
-------------------------------|-------------------------------|------------------------------------|
-------------------------------|-------------------------------|--0---------------0-----------------|
------------------------0------|--2--------0------------2------|-----------2------2--2-----2--0-----|
--2--------4-------------------|--5----------------------------|------------------2-----2--------4--|
-------------------------------|-------------------------------|------------------------------------|
--0--0--0----------------------|--0--0--0----------------------|--0--0--0---------------------------|


  E  E  E  Q.     E  E  E  E  E  E     E  E  E  Q    E  E  E  E  E  E  E   
------------------------------------|----------------0--------------------|
--2---------------2-----------------|--3----------------3-----------------|
--4---------------4-----------------|--6----------------------------------|
-----------2------------------------|-----------4-------------------------|
------------------------------------|-------------------------------------|
--0--0--0---------0--3--0--3--2--0--|--0--0--0----------0--3--0--3--2--0--|


  E  E  E  Q.     E  E  E  E  E  E     E  E  E  Q.     E  E  E  E  E  E   
--3---------------5-----------------|--7---------------7-----------------|
------------------------------------|--0---------------0-----------------|
-----------0------------------------|------------------------------0-----|
------------------------------------|-----------7---------7-----7--------|
------------------------------------|------------------7-----7--------9--|
--0--0--0---------0--3--0--3--2--0--|--0--0--0---------------------------|


  >                                       >                                   
  E  E  E  E  E  E  E  E  E  Q    E       E  E  E  Q    E  E  E  E  E  E  E   
--7----------------------------------||--------------------------------------|
--0----------------------------------||--------------------------------------|
-----------------------0-----0-------||*-----2-----2----------0-----0--------|
----------------------------------0--||*--------2----------------2-----4--2--|
-----7-----7--L-----------2----------||--------------------------------------|
--0-----7--------0--0----------------||---0-------------0--0-----------------|


  >                                    >                                   
  E  E  E  Q    E  E  E  E  Q    E     E  E  E  Q    E  E  E  E  E  E  E   
------------------------------------|-------------------------------------|
------------------------------------|-------------------------------------|
----------------------0-----0-------|-----2-----2----------0-----0--------|
-----2-----2---------------------0--|--------2----------------2-----4--2--|
--------2----------------2----------|-------------------------------------|
--0-------------0--0----------------|--0-------------0--0-----------------|


  >                   ^                  >                                    
  E  E  E   E   E  E  Q.     E  E  E     E  E  E  E  E  E  E  E  E  E  E  E   
--------------------------------------|--------------------------------------|
--0--------(0)--0--2--3---------0--3--|--2--0-----------------0--2--0--------|
----------------------0---------------|--------2--------2--------------2-----|
------------2---------2------2--------|-----------2--------4--------------2--|
--------------------------------------|--------------------------------------|
--0--0--0-----------------------------|--0--0--0-----0-----0-----------------|


  >                 ^                  >                                    
  E  E  E  E  E  E  Q.     E  E  E     E  E  E  E  E  E  E  E  E  E  E  E   
--------------------0---------------|--------------------0--------------0--|
--0--------0--2--3--0---------------|-----3--2--3--2--0-----3--2--0--3-----|
-----------0---------------0-----0--|--2--------2-----------2--------0-----|
------------------------------4-----|--------------------------------------|
------------------------------------|--------------------------------------|
--0--0--0-----------0---------------|--0--0--0-----------0-----0-----------|


  II                                                                         
  >        ^                             >        ^                          
  E  E  E  Q.      E  E  E  E   E  E     E  E  E  Q.      E  E  E  E  E  E   
--2--------5-------L--5-----5---L--5--|--2--------5-------L-----0--2--3--5--|
-----3--------------------------------|-----3--0-------------3--------------|
--------4-----------------------------|-----------0----------------2--------|
-----------2----------------4---L-----|-------------------------------------|
--------------------------------------|-------------------------------------|
--0-----0----------0-----0------------|--0-----0----------0-----0-----------|


  V                                      --                                 
  >                                      >                                  
  E  E  E  E  E  E  E  E  E  E  E  E     E  E  E  E  E  E  Q    E  E  Q     
--5--------5--------5--------5--------|--5--------5--5-----5----5-----5----|
--5--------5-----5--7--------7--5--7--|--8--7--5--7--5----------------5----|
--------------7-----------------------|-----------------7--6----7--L-------|
--------------------------------------|-----------5----------------7-------|
-----------7--------------------------|------------------------------------|
--0--0--0-----------0--0--0-----------|--0-----0-----------0----0----------|


  VII               ~                  V                                      
  >                                    >                                      
  E   Q    E  E  E  E  Q    Q    E     E  E   E  E  E  E  E  E  E   E  E  E   
--7--------7--7-----7-------7----7--|--9--7----------------------------------|
-----------------7--8-------8-------|--------10--8-----7--8-----8--10--8--7--|
--------------9---------------------|---------------9--------9------9--------|
-----------9------------------------|------------0---------------------------|
-----------7----------------9-------|-------------------------------0--------|
--0---0-------------0--0------------|--0------------------0------------------|


  III                                       --                --]              
  Csus2                                                                             
              >                                                                     
  E     E  E  E  E  E  E  E  E  E  E  E     E  E  E  E  E  E  E   E    E  E  E  E   
-----------3-----------3-----------3-----|--------3-----------3---5----6--8--6--5--|
--------3--------3-----------3-----------|--3-----------3--------------------------|
--------------------5-----------5--------|-----5-----------5-----------------------|
--5-----------5-----------5-----------5--|-----------5-----------------------------|
-----------------------------------------|-----------------------------------------|
--------------3--------3-----------------|--3-----------------3--------------------|


  V                                         --                                   
  Dsus2                                                                          
  E     E  E  E  E  E  E  E  E  E  E  E     E  E  E  E  E  E  E  E  E  E  E  E   
-----------5-----------5-----------5-----|--------5-----------5-----------------|
--------5--------5-----------5-----------|--5-----------5--------7--8--7--5-----|
--------------------7-----------7--------|-----7-----------7-----------------7--|
--7-----------7-----------7-----------7--|-----------7--------------------------|
-----------------------------------------|--------------------------------------|
--------------5--------5-----------------|--5-----------------5-----------------|


  >                                    >                                   
  E  E  E  Q    E  E  E  E  Q    E     E  E  E  Q    E  E  E  E  E  E  E   
--0---------------------------------|--0----------------------------------|
------------------------------------|-------------------------------------|
----------------------0-----0-------|-----2-----2----------0-----0--------|
-----2-----2---------------------0--|--------2----------------------------|
--------2----------------2----------|-------------------------7-----9--7--|
--0-------------0--0----------------|--0-------------0--0-----------------|


   >                                    >                                   
   E  E  E  Q    E  E  E  E  Q    E     E  E  E  Q    E  E  E  E  E  E  E   
--12---------------------------------|--0----------------------------------|
-------------------------------------|-------------------------------------|
-----------------------0-----0-------|-----2-----2----------0-----0--------|
----------------------------------0--|--------2----------------2-----4--2--|
------7-----7------------------------|-------------------------------------|
---0-----7-------0--0-----7----------|--0-------------0--0-----------------|


  >                                     >     >     >     >                  
  E  E  E  E  Q    E  E  E  E  E  E     E  E  E  E  E  E  E  E  E  E  E  E   
--------0-----2----3--2--0-----------|--0-----2-----3-----5-----3--2--0-----|
--0-------------------------3-----0--|-----0-----0-----0-----------------3--|
-------------------------------------|--------------------------------------|
-----------2-------------------------|-----------4--------------------------|
-------------------------------------|--------------------------------------|
--0--0--0----------0--3--0--3--2-----|--0--0--0-----------0--3--0--3--2-----|


                                                          V                 
  >                                     >     >                             
  E  E  E  E  Q    E  E  E  E  E  E     E  E  E  E  E  E  Q    E  E  E  E   
--------0-----2----3--2--0-----------|--0-----2-----3-----5----------------|
--0-------------------------3-----0--|-----0-------------------8--7--5-----|
-----------0-------------------------|----------------------------------7--|
-------------------------------------|--------------------7----5-----------|
-------------------------------------|-----2-----2-----2----------------5--|
--0--0--0----------0--3--0--3--2-----|--0-----0----------------------------|


  III                                                                          
  Csus2                                                                           
              >                                                                   
  E     E  E  E  E  E  E  E  E  E  E  E     E  E  E  E  E  E  E  E   E  E  E  E   
-----------3-----------3-----------3-----|--------3-----------3--5---6--8--6--5--|
--------3--------3-----------3-----------|--3-----------3------------------------|
--------------------5-----------5--------|-----5-----------5---------------------|
--5-----------5-----------5-----------5--|-----------5---------------------------|
-----------------------------------------|---------------------------------------|
--------------3--------3-----------------|--3-----------------3------------------|


  Dsus2                                                                          
  E     E  E  E  E  E  E  E  E  E  E  E     E  E  E  E  E  E  E  E  E  E  E  E   
-----------5-----------5-----------5-----|--------5-----------5-----------------|
--------5--------5-----------5-----------|--5-----------5--------7--8--7--5-----|
--------------------7-----------7--------|-----7-----------7-----------------7--|
--7-----------7-----------7-----------7--|-----------7--------------------------|
-----------------------------------------|--------------------------------------|
--------------5--------5-----------------|--5-----------------5-----------------|


1._____________________________          2.___________________
  >                                                                                                    
  E  E  E  Q    E  E  E  E  Q    E       E  E  E  Q.     H.              E  E  E  Q.     H.            
-------------------------------------||-------------------------------|-------------------------------|
-------------------------------------||-------------------------------|-------------------------------|
----------------------0-----0-------*||--0----------------------------|--2----------------------------|
-----2-----2---------------------0--*||--2--------2------L------------|--2--------4------L------------|
--------2----------------2-----------||-------------------------------|-------------------------------|
--0-------------0--0-----------------||--0--0--0----------------------|--0--0--0----------------------|


  E  E  E  Q.     H.              E  E  E  Q.     E  E  E  E  E  E   
-------------------------------|------------------------------------|
--0----------------------------|--2---------------------------------|
-----------0------L------------|-----------2---------2-----2--0-----|
--4----------------------------|--4---------------2-----2--------4--|
-------------------------------|------------------------------------|
--0--0--0----------------------|--0--0--0---------------------------|


  E  E  E  Q.     E  E  E  E  E  E     E  E  E  Q.     E  E  E  E  E  E   
------------------------------------|------------------------------------|
--0---------------------------------|--2---------------------------------|
---------------------0--------------|--2---------------------------------|
--2--------2------------------------|--2--------4------------------------|
------------------------------------|------------------------------------|
--0--0--0---------0--3--0--3--2--0--|--0--0--0---------0--3--0--3--2--0--|


                                                                             VII  (open)                 
  E  E  E  Q.     E  E  E  E  E  E     E  E  E  Q.     E  E  E  E  E  E      H.           Q.     Q.      
------------------------------------|--0---------------------------------|---0--------------------------|
--3---------------------------------|--2---------------------------------|-----------------------7------|
--4--------0---------0--------------|-----------2---------2-----2--0-----|---7------------9-------------|
--4---------------------------------|--2---------------2-----2--------4--|--11--------------------------|
------------------------------------|------------------------------------|---7--------------------------|
--0--0--0---------0--3--0--3--2--0--|--0--0--0---------------------------|------------------------------|


  --                            --                                            D.C. al Fine                
  H.            H.              W.                   W.                  W.                 
-----------------------------|--7----------------|---L----------------|-------------------||
--8------------10------------|-------------------|--------------------|-------------------||
-----------------------------|-------------------|--------------------|-------------------||
-----------------------------|-------------------|--------------------|-------------------||
-----------------------------|-------------------|--------------------|-------------------||
-----------------------------|-------------------|--------------------|-------------------||


Note : for the difficult bars 58, 59 & 60, the fingersteps I play is noted on the pdf & gp5 files

Legend
---------------
W - whole
H - half
Q - quarter
E - 8th
. - note dotted
L - tied note
> - accentuded BASS note (only BASS)
^ - brush up
Login or Register to remove this ad.

4 comments on Main Theme

I despise halo but I like the

I despise halo but I like the music a lot, going to try to learn this when I get some time. Thanks for the arrange/tab.

You're welc c: & yeah I'm

You're welc c: & yeah I'm agree , it's a really nice theme : Original ost

Thanks for this, any chance

Thanks for this, any chance of a youtube video? I'm a noob and can't quite figure out how to arrange my fingers in the later half :P

I don't build videos

I don't build videos actually, I'm not enough good guitarist to record a descent live session unfortunately :/ A day maybe, I hope but I need to work more my skills -_-'
I don't think this tab is so difficult if played slower than original tune. Btw did u check the pdf file attached ? I already noted some fingersteps there. Anyway just tell me what bars (by its n°) are difficult for you then I'll can give the fingersteps I use for myself.