Ads

Omokage (Gundam SEED Destiny) Guitar Tab

Submitted: Nov 07, 2012 by diralark

5
Average: 5 (4 votes)
Download | Listen
Game: Gundam SEED Destiny
Composer(s): Toshihiko Sahashi
Style: Arrangement, Fingerstyle

AutoScroll: Slow | Medium | Fast
       Rey Za Burrel's Piano Omokage   -   from Gundam Seed Destiny   -  ( anime, 2004 )  

    Music by Sahashi Toshihiko  >> piano arr. by Josh  >>  guitar arr. by Diralark

Guitar (Capo 2), Dropped D Tuning, let ring

    T(empo)=102                T=104

     H        E  E  E  E       E  E  E  E  E  E  E  E     E  E  E  E  E  E  E  E     E  E  E  E  E  E   E   E   
E||-----------------------||---0--------------0--------|--------------------------|--3-----0-------------------|
B||-----------------0--1--||------------------------3--|-----------------0--1--3--|-----------1--L--3----------|
G||--------------2--------||*--------5-----5-----------|--------0--2--L-----------|-------------------------2--|
D||-----------------------||*-----0-----3--L-----0-----|-----0--------------------|-----2--------------(2)-----|
A||-----------------------||---------------------------|--------------------------|----------------------------|
D||-----------------------||---0-----------------------|--5-----------------------|--2-------------------------|


  III(3) T=106                                                                           rall.......T=96                                          
                                                                         ^                                    
  E      E  E  E  E  E  E  E      E  E  E  E  E  E  E  E     E  E  E.  S Q    Q       E  E  E  E  E  Q    E   
---------------------1--0--1--|---L--0--------------------|--------------0---------|-------------------------|
------------------------------|------------3-----------0--|--------0-----0----3----|--1--3-----1-----0-------|
---------------0--L-----------|------------------5--------|--------1---1-1---------|-------------------------|
------------3-----------------|---------0-----0-----0-----|-----2------------------|--2--------2-----0-------|
---------3--------------------|---------------------------|------------------------|--0-----0-----0-------0--|
--3---------------------------|---0-----------------------|--2---------------------|-------------------------|


              T=104
                                                                                         III               
  H        E  E  E  E     E  E  E  E  E  E  E  E     E  E  E  E  E  E  E  E     E  E  E  E    E  E  E  E   
-----------------------|--0--------------0--------|--------------------------|--3-----5--3----L-----------|
-----------------0--1--|-----------------------3--|-----------------0--1--3--|----------------------3-----|
--2-----------2--------|--------5-----5-----------|--------0--2--L-----------|-------------------4-----5--|
-----------------------|-----0-----3--L-----0-----|-----0--------------------|-----2----------------------|
--3--------------------|--------------------------|--------------------------|----------------------------|
-----------------------|--0-----------------------|--5-----------------------|--2-------------------------|


  --     T=106                                                                    rall................T=90                                      
                                                                     ^                                    
  E  E  E  E  E  E  E  E      E  E  E  E  E  E  E  E     E  E  E.  S Q    Q       E  E  E  E  E  Q    E   
-----------------1--0--1--|---L--0--------------------|--------------0---------|-------------------------|
--------------------------|------------3-----------0--|--------0-----0----3----|--1--3-----1-----0-------|
-----------0--2--2--0-----|------------------5--------|--------1---1-1---------|--------2-----2-------2--|
--------3-----------------|---------0-----0-----0-----|-----2------------------|--2--------2-----0-------|
-----3--------------------|---------------------------|------------------------|--0----------------------|
--3-----------------------|---0-----------------------|--2---------------------|-------------------------|


 1|__________  T=104

  H        E  E  E  E     E  E  E  E  E  E  E  E     E  E  E  E  Q    E  E     E  E  E  E   E  E  Q     
-----------------------|--------------------------|-------------------------|--3-----------------------|
--------------1--------|-----------------------1--|-----0-----3--L----------|-----------1---L-----1----|
--------------------0--|--0--2--------2-----------|--5----------------0-----|--------0------0----------|
-----------------3-----|--------0--3-----0--------|----------------------2--|-----2------------2-------|
--0--------L-----------|-----0--------------------|-------------------------|--------------------------|
-----------------------|--0-----------------0-----|--5-----5----------------|--2------------------2----|


                                                        T=102                     rall................T=90
  ^                                                                                                        
  E  E  E  E  E  E  E  E     E  E  E  E  E  E  E  E     E  E  E  E  E  E  Q       E  E  E  E  E  E  E  E   
--5--3-----0--------------|--------------------------|-------------------------|-----------3--L-----------|
--5--------1--------1-----|--1--------------0--1--3--|--1--0-------------------|--1-----0-----------0--1--|
--------2--------2-----2--|-----------0--2-----------|-----------1-------------|-----2-----------2--------|
--------------------------|-----0--3-----------------|-----2--L-----2--2-------|--------------------------|
--0-----------0-----------|--------------------------|-------------------------|--0-----------------------|
--------------------------|--0-----------------------|--2-----------------2----|--------------------------|


                    I    T=102                                                                             
  ^                                                                                                   
  H.            E.  S    E  E  E  E  E  E  E  E     E  E  E  E  E  E  E.  S    Q.     E  E  E  E.  S  
--3-------------L---1-|--------------------------|--------------------------|------------------3-----|
----------------------|--1-----------------1-----|--0-----------0-----3---3-|------------------------|
--2-------------------|-----------2-----2-----0--|--0--0--0-----0--5--4-----|--0---------------0---2-|
----------------------|-----0--3-----3-----0-----|--------------------------|---------2-----2--------|
----------------------|--------------------------|--------------------------|------------------------|
----------------------|--0-----------------------|--5--------5--------------|--2---------2-----------|


        rall.......T=96     T=102                         T=100                        rall..........T=92

  E  E  E  E  E  E  Q       E  E  E  E  E  E  E  E     E  E  E  E  E  E  Q       E  E  E  E  E  E  Q     
--------------------0----|--------------------------|-------------------------|-------------------------|
--1--0-----1-------------|--------------------------|-----------0--L----------|-------------------------|
--------2-----2----------|-----------2--L-----2-----|--------0-----------0----|--------2-----2-----2----|
--2--0-----2-------------|-----0--3--------0--3--2--|--0--0-----------2-------|-----3-----3-----3-------|
--0--------------0-------|--0-----------------------|-------------------------|--3----------------------|
-------------------------|--0-----------------------|--2----------------------|--3----------------------|

                           
                                acc.....T=104   2|___________  T=104
                                                               III      --                        
  Q.     E  H           H        E  E  E  E       H.           E.  S    E  E  E  E   E  E  E  E   
---------------------|------------------------||---------------------|--5--3-----3---L--5--------|
---------------------|-----------------0--1---||---------------------|-----5--5--5---------------|
---------------------|--------------2--------*||--2----------------5-|--------5---------------5--|
--3------------------|-----------------------*||---------------------|---------------------3-----|
--0------7--7--------|--L---------------------||--3------------3-----|---------------------------|
---------6-----------|--L---------------------||---------------------|--3------------------------|


                           --                                                                     III(3)     
  E  E  H         E.  S    E  E  E  E   E  E  E  E     E  E  H         E.  S    E  E  E  E  E  E  E      E   
-----3--3---------L-----|--5--3-----3---L--5--------|-----3--3---------L-----|------------------------------|
------------------------|-----5--5--5---------------|------------------------|------------------------------|
----------------------5-|--------5---------------5--|------------------------|--2--0-----0-----2------------|
--L--5------------------|---------------------3-----|--L--5------------------|-----2--2--2--L-----3---------|
-----3------------------|---------------------------|-----3----------------3-|--------3------------------3--|
------------------------|--3------------------------|------------------------|--3---------------------------|


     T=102                                                                     T=96
                                            III(3)                                                 
  E  E  H        E.  S    E  E  E  E  E  E  E      E     E  E  H.              E  E  H.            
-----------------------|------------------------------|---------------------|---------------------|
-----------------------|------------------------------|---------------------|---------------------|
-----0--0--------L-----|--2--0-----0-----2------------|-----0--0------------|---------------------|
-----2-----------------|-----2--2--2--L-----3---------|-----2---------------|-----3--3------------|
--L--2---------------3-|--------3------------------3--|--L--2---------------|--0--3---------------|
-----------------------|--3---------------------------|---------------------|--0------------------|


     T=90               rall.............T=40 T=24 

  E  E  H.              E  E  E  E  E  E  E  E     W                  
---------------------|--------------------------|-------------------||
---------------------|--0--0--------------------|-------------------||
-----0--0------------|--------0--0--------------|-------------------||
-----0---------------|--------------2--2--0--0--|--2----------------||
--2------------------|--0-----------------------|--0----------------||
--2------------------|--------------------------|-------------------||

Legend
-------------
W - whole
H - half
Q - quarter
E - 8th
S - 16th
. - note dotted
L - tied note
^ - brush up
Login or Register to remove this ad.

1 comment on Omokage

If u want lesson the OST :

If u want lesson the OST : http://www.youtube.com/watch?v=-H5OPLEL3fg