Fields of Hope (Gundam SEED Destiny) Guitar Tab

Submitted: Apr 23, 2016 by Coolbreeze

5
Average: 5 (2 votes)
Download | Listen
Game: Gundam SEED Destiny
Composer(s): Toshihiko Sahashi
Style: Arrangement, Fingerstyle, Transcription

AutoScroll: Slow | Medium | Fast
				   Fields of Hope 
				~Gundam Seed Destiny~

Music by Rie Tanaka
Arranged and Performed by Raymond Sagrang
Tabbed by Coolbreeze
Tuning : E raised to F and released from Capo
Capo : Fret 3
Tempo = 77


     E  E  E  E  E  E  E  E     E  E  E  E  E  E  E  E      E  E  E  S  S E  E  E  E  
E |--------------------------|--------------------------||----------------------------|
B |-----------0--1--------0--|-----------0--1--------0--||--0--------0h-1-1--------0--|
G |--------0-----------0-----|--------0-----------0----*||--------0-------------0-----|
D |-----2-----------2--------|-----2-----------2-------*||-----2-------------2--------|
A |--3-----------------------|--3-----------------------||--3-------------3-----------|
F |--------------------------|--------------------------||----------------------------|


  E  E  E  S  S E  E  E  E      E  E  E  S  S E  E  E  E     E  E  E  E  E  E  E  E
----------------------------||----------------------------|--------------------------|
--0--------0h-1-1--------0--||--0--------0h-1-1--------3--|--1-----------------------|
--------0----------0--------||*-------2-------------2-----|--------2--0--0--------0--|
-----2----------------------||*----2-------------2--------|-----2-----------2--------|
--3-------------3-----2-----||--0-------------0-----------|--0-----------0-----------|
----------------------------||----------------------------|--------------------5-----|


                                                          1st Ending ---------------
  E  E  E  S  S E  E  E  E     E  E  E  S  S E  E  E  E     E  E  E  E  E  E  E  E
----------------------------|----------------------------|--------------------------|
----------------------------|-------------------------1--|--1-----------------0--0--|
-----------0h-2-2--------0--|--0--------0h-2-2-----------|--------0-----0-----------|
--2-----3-------------3-----|--------3-------------3-----|-----0-----0-----0--------|
-----3-------------3--------|-----3-------------3--------|--------------------------|
--3-------------3-----------|--0-------------0-----------|--5-----------5-----------|



  E  E  E  E  E  E  E  E     E  E  E  S  S E  E  E  E     E  E  E  S  S E  E  E  E 
--------------------------|----------------------------|----------------0-----------||
-----------------------0--|--0--------0h-1-1--------0--|--0--------0h-1----------0--||
--------X-----------------|--------0-------------0-----|--------0------------------*||
-----0-----0-----0--------|-----2-------------2--------|-----2-------------2-------*||
--------------0-----2-----|--3-------------3-----------|--3-------------3-----2-----||
--5-----------------------|----------------------------|----------------------------||


2nd Ending ---------------
  E  E  E  E  E  E  E  E     E  E  E  E  E  E  E  E     E  E  E  E  E  E  E  E
--------------------------|--------------------------|-----------------------0--|
--1--------------1--3--0--|-----------------------0h-|--3-----3--1h-3-----3-----|
--------0-----------------|--------0-----------------|--------------------------|
-----0-----0--------------|-----0-----0-----0--------|-----2-----------2--------|
--------------------------|--------------0-----2-----|--3-----------3-----------|
--5-----------5-----------|--5-----------------------|--------------------------|


  E  E  E  E  E  E  E  E     E  E  E  E  E  E  E  E     E  E  E  E  E  E  E  E
--------0-----------------|-----------------------0h-|--1-----0-----------------|
--1--X-----1--1--------1h-|--3-----3--1h-3-----3-----|-----------1--1--------0--|
-----------------0--------|--------------------------|-----2-----------2--------|
--------------------------|-----2-----------2--------|--------------------------|
--3-----------3-----2-----|--0-----------0-----------|--0-----------0-----------|
--------------------------|--------------------------|--------------------5-----|


  E  E  E  E  E  E  E  E     E  E  E  E  E  E  E  E     E  S  S  E  E  E  E  E  E  
-----------3--3-----------|-----------3--3-----------|--0--0h-1p-0-----------------|
--1-----1-----------X-----|--1-----1-----------1--3--|--------------3-----1-----1--|
-----2-----------2-----2--|--2-----------------------|-----------------------------|
--------------------------|-----3-----------3--------|-----------------------0-----|
--------------------------|--------------------------|-----------------------------|
--3-----------3-----------|--0-----------0-----------|--5--------------5-----------|


  E  E  E  E  E  E  E  E     E  E  E  E  E  E  E  E     E  E  E  E  E  E  E  E    
--------------------------|-----------------------0h-|--1-----0-----------------|
--1--------3--3--------0h-|--3-----3--1h-3-----3-----|-----X-----0--0--------1h-|
--------0--------0--------|--------0-----------------|-----------------0--------|
-----0--------------------|-----2-----------2--------|--------------------------|
--------------0-----2-----|--3-----3-----3-----------|--3-----------3-----2-----|
--5-----------------------|--------------------------|--------------------------|


  E  E  E  E  E  E  E  E     E  E  E  E  E  E  E  E     E  E  E  E  E  E  E  E    
-----------------------0h-|--1-----0-----------------|-----------3--3-----------|
--3-----3--1h-3-----3-----|--------1--1--1--------0--|--1-----1-----------x-----|
--------------------------|-----2-----------2--------|-----2-----------2-----2--|
-----2-----------2--------|--------------------------|--------------------------|
--0-----------0-----------|--0-----------0-----------|--------------------------|
--------------------------|--------------------5-----|--3-----------3-----------|


                                                                         ^
  E  E  E  E  E  E  E  E     E  S  S  E  E  E  E  S  S E     E  E  E  E  Q   S  S E  
-----------3--3-----------|--0--0h-1p-0-------------------|--------------------------||
--1-----1-----------1--3--|--------------3-----1--1h-3----|--------------0---0h-1-1--||
--2-----------------------|-------------------------------|--------0-----0-----------||
-----3-----------3--------|----------------------------0--|-----0-----0--0-----------||
--------------------------|-------------------------------|--------------------------||
--0-----------0-----------|-----------------5-------------|--5-----------5-----------||


  E  E  E  E  E  E  E  E     E  E  E  E  E  E  E  E      E  E  E  S  S E  E  E  E 
--------------------------|--------------------------||----------------------------|
-----------0--1--------0--|-----------0--1--------0--||--0--------0h-1-1--------0--|
*-------0-----------0-----|--------0-----------0----*||--------0-------------0-----|
*----2-----------2--------|-----2-----------2-------*||--------2-------------2-----|
--3-----------------------|--3-----------------------||--3--3----------3--3--------|
--------------------------|--------------------------||----------------------------|


  E  E  E  S  S E  E  E  E     E  E  E  S  S E  E  E  E     E  E  E  E  E  E  E  E  
----------------------------|----------------------------|--------------------------|
--0--------0h-1-1--------0--|--0--------0h-1-1--------3--|--1-----------------------|
--------0-------------------|--------2-------------2-----|--------2--0--0--------0--|
--------2----------2--------|--------2-------------2-----|--------2--------2--------|
--3--3----------3-----2-----|--0--0----------0--0--------|--0--0--------0-----------|
----------------------------|----------------------------|--------------------5-----|


  E  E  E  S  S E  E  E  E     E  E  E S S  E  E  E  E     E  E  E  E  E  E  E  E
----------------------------|---------------------------|--------------------------|
----------------------------|------------------------1--|--1-----------------0--0--|
-----------0h-2-2--------0--|--0-------0h-2-2-----------|--------0-----------0-----|
--2-----3-------------3-----|--------3------------3-----|--------0--0-----0--------|
--------3-------------3-----|--------3------------3-----|--------------------------|
--3--3----------3--3--------|-----0---------0--0--------|--5--5--------5-----------|


  E  E  E  E  E  E  E  E     E  E  E  S  S E  E  E  E     E  E  E  S  S E  E  E  E
--------------------------|----------------------------|----------------------------|
-----------------------0--|--0--------0h-1-1--------0--|--0--------0h-1-1--------1--|
--------0-----------------|--------0-------------0-----|--------0----------0--------|
--------0--0-----0--------|--------2-------------2-----|--------2-------------------|
--------------0-----2-----|--3--3----------3--3--------|--3--3----------3-----2-----|
--5--5--------------------|----------------------------|----------------------------|


                                        ^
  E  E  E  E  E  S  S E  E     E  E  E  E  E  E  E  E     E  S S E  E  E  E  E  E
--3-----1--0----------------|--------------------0-----|---------------------------|
--------1--1-----1h-3----1--|--------------3--------3--|-----1-1-------------1-----|
-----X-------------------2--|--------2--0--------------|---------2--------2-----2--|
----------------------2-----|-----2-----0-----0--------|------------0--3-----------|
--------------0-------------|--0--------0--------------|---------------------------|
----------------------------|--------------5-----------|---------------------------|


  E  E  E  E  E  E  E  E     E  E  E  E  E  E  E  E     E  E  E  E  E  E  E  E 
-----------------------0--|--1-----1--0--------------|--------------------------|
-----X-----0--1-----1-----|--0-----0--0-----1-----1--|--1--------3--3--------0h-|
--------2-----2-----------|-----0-----------0-----0--|--------0--------0--------|
-----------------3--------|-----------------3--0-----|--3--0--------------------|
--------------------------|--------------------------|--------------0-----2-----|
--3-----------3-----------|--5-----------5-----------|--------------------------|


  E  E  E  E  E  E  E  E     E  E  E  E  E  E  E  E     E  E  E  E  E  E  E  E 
-----------------------0h-|--1-----0-----------------|-----------------------0h-|
--3-----3--1h-3-----3--0--|--1--X--1--1--1--------1h-|--3-----3--1--1-----3--1--|
--------0--0--0-----0-----|-----------0-----0--------|--2-----2-----2-----2-----|
-----2-----------2--------|--------------------------|-----2-----------2--------|
--3-----------3-----3-----|--3-----3-----3-----2-----|--0-----------0-----------|
--------------------------|--------------------------|--------------------------|


  E  E  E  E  E  E  E  E     E  E  E  E  E  E  E  E     E  E  E  E  E  E  E  E
--1-----0--------------0--|-----------3--3-----------|-----------3--3-----------|
--1-----1-----1-----------|--1-----1-----------X-----|--1-----1--1--1-----1--3--|
-----2-----2-----2--------|-----2-----------2-----2--|--2-----2-----2-----2--2--|
--2-----------------------|--------------------------|--0--3--0--------3--------|
--------------0-----------|--------------------------|--------------------------|
--------------------5-----|--3-----------3-----------|--0-----------0-----------|


  E  S  S  E  E  E  E  E  E     E  E  E  S  S E  E  E  E     E  E  E  E  E  E  E  E
--0--0h-1p-0-----------------|----------------------------|-----------------------0h-|
--0--0--0--0--3-----1-----1--|--1--------1h-3-3--------0h-|--3-----3--1h-3-----3--1--|
--------------0-----0-----0--|--0-----0----------0--------|--------0--0--0-----0-----|
--------------------3--0--3--|--3--0----------------------|-----2-----------2--------|
-----------------------------|----------------0-----2-----|--3-----------3-----3--3--|
--5--------5--5--5-----------|----------------------------|--------------------------|


  E  E  E  E  E  E  E  E     E  E  E  E  E  E  E  E     E  E  E  E  E  E  E  E
--1-----0-----------------|-----------------------0h-|--1-----0-----------------|
--1--X--1--1--1--------1h-|--3-----3--1h-3-----3--1--|--1-----1-----1--------0--|
-----------0-----0--------|--2-----2--2--2-----2-----|-----2-----2-----2--------|
--------------------------|-----2-----------2--------|--------------------------|
--3-----3-----3-----2-----|--0-----0-----0-----------|--0-----------------------|
--------------------------|--------------------------|--------------------5-----|


  E  E  E  E  E  E  E  E     E  E  E  E  E  E  E  E     E  S  S  E  E  E  E  E  E
-----------3--3-----------|-----------3--3-----------|--0--0h-1p-0-----------------|
--1-----1-----------x-----|--1-----1--1--1-----1--3--|--0--0--0--0--3-----1h-3-----|
-----2-----------2-----2--|--2-----2-----2-----2--2--|--------------0-----0--0-----|
--------------------------|--0--3--0--------3--------|--------------------3--3--0--|
--------------------------|--------------------------|-----------------------------|
--3-----------3-----------|--0-----------0-----------|--5--------5--5--5-----------|


              ^                                         ^
  E  E  E  E  E  E  E  E     E  E  E  E  E  E  E  E     E  E  E  E  E  E  E  E
--------------------------|-----------------------0--|--1-----0-----------------|
--------------0-----1--1--|--3-----3--1h-3-----3--1--|--1-----1-----1--------0--|
--------0-----0-----0--0--|--------0--0--0-----0-----|--2--2-----------2--------|
-----0-----0--0--0--3--3--|--2--2--------2--2--------|-----------2--------------|
--------------------------|--3-----3-----3-----------|--2-----------------------|
--5-----------5-----------|--------------------3-----|--------------------5-----|

                                                          
                                                                           ^
  E  E  E  E  E  E  E  E     E  E  E. E. Q.     E  E  E  E  E  E  E  E     W
--------------------------|--------------3---|-----7--8--3-----0--------|------||
--1--------------1--1--0--|-----0--1--3------|-----0--------3-----------|--1---||
-----2--------2-----0-----|--2---------------|--0--0--------------2--0--|--0---||
--------3--3--------------|------------------|-----3--------------------|--2---||
--------------------------|------------------|--------------------------|--3---||
--3-----------------3-----|------------------|--------------------------|------||
Login or Register to remove this ad.

1 comment on Fields of Hope

F

5

just tune E to D and keep it on the capo X) otherwise pretty good tab my dude