Fields of Hope (Gundam SEED Destiny) Guitar Tab

Submitted: Sep 10, 2015 by MechaKrauser

5
Average: 5 (5 votes)
Download | Listen
Game: Gundam SEED Destiny
Composer(s): Toshihiko Sahashi
Style: Arrangement, Fingerstyle

AutoScroll: Slow | Medium | Fast
Fields of Hope
from Gundam Seed Destiny
performed by Tanaka Rie
lyrics and composition by Kajiura Yuki
tabbed by MechaKrauser

Guitar in Drop D tuning, Capo on 3
76bpm

   [Intro]
     E  E  E  E  E  E  E  E     E  E  E  E  E  E  E  E     E  E  E  E  E  E  E  E   
E||--------------------------|--------------------------|--------------------------|
B||-----------0--1--------0--|-----------0--1--------0--|-----------0--1--------0--|
G||--------0-----------0-----|--------0-----------0-----|--------0-----------0-----|
D||-----0-----------0--------|-----0-----------0--------|-----0-----------0--------|
A||--3-----------------------|--3-----------------------|--3-----------------------|
D||--------------------------|--------------------------|--------------------------|

                           [Verse 1]
  E  E  E  E  E  E  E  E     E  E  E  E  E  E  E  E     E  E  E  E  E  E  E  E   
--------------------------|--------------------------|--------------------------|
-----------0--1--------0--|--0--------1--1--------0--|--0--------1--1--------0--|
--------0-----------0-----|--------0-----------0-----|--------0-----------0-----|
-----0-----------0--------|-----0-----------0--------|-----0-----------0--------|
--3-----------------------|--3-----------3-----------|--3-----------3-----2-----|
--------------------------|--------------------------|--------------------------|


  E  E  E  E  E  E  E  E     E  E  E  E  E  E  E  E     E  E  E  E  E  E  E  E   
--------------------------|--------------------------|--------------------------|
--0--------1--1--------3--|--1-----------------------|-----------------------0--|
--------2-----------2-----|-----------2--2--------0--|--0--------2--2-----------|
-----2-----------2--------|--------2--------2-----2--|--------3-----------3-----|
--0-----------0-----------|--0--3--------0-----3-----|-----0-----------0--------|
--------------------------|--------------------------|--3-----------3-----------|


  E  E  E  E  E  E  E  E     E  E  E  E  E  E  E  E     E  E  E  E  E  E  E  E   
--------------------------|--------------------------|--------------------------|
--0--------1--1--------3--|--------------------------|--0-----------1-----3--1--|
-----------2-----------2--|--5-----0-----------0--5--|--------0-----2-----4-----|
--------0-----------2-----|-----0-----0-----0-----0--|-----0-----0--3--0--5--0--|
-----3-----------3--------|--------------------------|--------------------------|
--0-----------0-----------|--5-----------5-----------|--5-----------------------|


  E  E  E  E  E  E  E  E     E  E  E  E  E  E  E  E     E  E  E  E  E  E  E  E   
--------------------------|--------------------------|--------------------------|
--0--------1--1--------0--|--0--------1--1--------0--|--0--------1--1--------3--|
--------0-----------0-----|--------0-----------0-----|--------2-----------2-----|
-----0-----------0--------|-----0-----------0--------|-----2-----------2--------|
--3-----------3-----------|--3-----------3-----2-----|--0-----------0-----------|
--------------------------|--------------------------|--------------------------|


  E  E  E  E  E  E  E  E     E  E  E  E  E  E  E  E     E  E  E  E  E  E  E  E   
--------------------------|--------------------------|--------------------------|
--1-----------------------|-----------------------0--|--0--------1--1--------3--|
-----------2--2--------0--|--0--------2--2-----------|-----------2-----------2--|
--------2--------2-----2--|--------3-----------3-----|--------0-----------2-----|
--0--3--------0-----3-----|-----0-----------0--------|-----3-----------3--------|
--------------------------|--3-----------3-----------|--0-----------0-----------|

                                                      [Pre-Chorus]
  E  E  E  E  E  E  E  E     E  E  E  E  E  E  E  E     E  E  E  E  E  E  E  E   
--------------------------|--------------------------|-----------------------0--|
--3--------------------0--|--0-----------1-----3--1--|--1-----1--3--3-----3-----|
--0-----0--------5--5-----|--0-----0-----2-----4-----|--------------------------|
-----0-----0-----0--------|-----0-----0--3--0--5--0--|-----0-----------2--------|
--------------------------|--------------------------|--3-----------3-----------|
--5-----------5-----------|--5-----------------------|--------------------------|


  E  E  E  E  E  E  E  E     E  E  E  E  E  E  E  E     E  E  E  E  E  E  E  E   
--1-----0-----------------|-----------------------0--|--1-----0-----------------|
--------------1--------1--|--1-----1--3--3-----3-----|--------------1--------1--|
--------------------0-----|--------------------------|-----------2--------0-----|
-----0-----2-----2--------|-----2-----------2--------|-----2-----------2--------|
--3-----------3-----2-----|--0-----------0-----------|--0-----------0-----2-----|
--------------------------|--------------------------|--------------------------|


  E  E  E  E  E  E  E  E     E  E  E  E  E  E  E  E     E  E  E  E  E  E  E  E   
-----------3--3-----------|-----------3--3-----------|--------------------------|
--1-----1-----------1--1--|--1-----1-----------1--1--|--6--6--5--3--------------|
--------------------------|--------------------------|-----------------5-----5--|
--------------------------|--------------------------|-----0-----------0--------|
-----0-----------0--------|-----3-----------3--------|--------------------------|
--3-----------3-----------|--0-----------0-----------|--5-----------5-----------|

                           [Chorus]
  E  E  E  E  E  E  E  E     E  E  E  E  E  E  E  E     E  E  E  E  E  E  E  E   
--------------------------|-----------------------0--|--1-----0-----------------|
-----------3--3-----------|--3-----3--1--3-----3-----|--1-----------1--------1--|
--5-----0-----------0--5--|--0-----------0-----------|--------------0-----0-----|
-----0-----------0-----0--|-----0-----------2--------|-----0-----2-----2--------|
--------------------------|--3-----------3-----------|--3-----------3-----2-----|
--5-----------5-----------|--------------------------|--------------------------|


  E  E  E  E  E  E  E  E     E  E  E  E  E  E  E  E     E  E  E  E  E  E  E  E   
-----------------------0--|--1-----0-----------------|-----------3--3-----------|
--3-----3--1--3-----3-----|--1-----------1--------1--|--1-----1-----1-----1--1--|
--2-----------2-----------|-----------2--2-----0-----|--------------------------|
-----2-----------2--------|-----2-----------2--------|--3-----------------------|
--0-----------0-----------|--0-----------0-----2-----|-----0-----------0--------|
--------------------------|--------------------------|--3-----------3-----------|


  E  E  E  E  E  E  E  E     E  E  E  E  E  E  Q       H        Q    Q     
-----------3--3-----------|-------------------------|---------------------|
--1-----1-----1-----1--1--|--6--6--5--3--------3----|-----------0----0----|
--------------------------|--0--------------5--0----|-----------0----0----|
--0-----------------------|-----0-----------0-------|--0------------------|
-----3-----------3--------|-------------------------|---------------------|
--0-----------0-----------|--5-----------5----------|--5------------------|


  E  E  E  E  E  E  E  E     E  E  E  E  E  E  E  E     E  E  E  E  E  E  E  E   
--------------------------|--------------------------|--------------------------|
--1--------0--1--------0--|-----------0--1--------0--|-----------0--1--------0--|
--0-----0-----------0-----|--------0-----------0-----|--------0-----------0-----|
-----0-----------0--------|-----0-----------0--------|-----0-----------0--------|
--3-----------------------|--3-----------------------|--3-----------------------|
--------------------------|--------------------------|--------------------------|

                           [Verse 2]
  E  E  E  E  E  E  E  E     E  E  E  E  E  E  E  E     E  E  E  E  E  E  E  E   
--------------------------|--------------------------|--------------------------|
-----------0--1--------0--|--0--------1--1--------0--|--0--------1--1--------0--|
--------0-----------0-----|--------0-----------0-----|--------0-----------0-----|
-----0-----------0--------|-----0-----------0--------|-----0-----------0--------|
--3-----------------------|--3-----------3-----------|--3-----------3-----2-----|
--------------------------|--------------------------|--------------------------|


  E  E  E  E  E  E  E  E     E  E  E  E  E  E  E  E     E  E  E  E  E  E  E  E   
--------------------------|--------------------------|--------------------------|
--0--------1--1--------3--|--1-----------------------|-----------------------0--|
--------2-----------2-----|-----------2--2--------0--|--0--------2--2-----------|
-----2-----------2--------|--------2--------2-----2--|--------3-----------3-----|
--0-----------0-----------|--0--3--------0-----3-----|-----0-----------0--------|
--------------------------|--------------------------|--3-----------3-----------|


  E  E  E  E  E  E  E  E     E  E  E  E  E  E  E  E     E  E  E  E  E  E  E  E   
--------------------------|--------------------------|--------------------------|
--0--------1--1--------3--|--------------------------|--0-----------1-----3--1--|
-----------2-----------2--|--5-----0-----------0--5--|--------0-----2-----4-----|
--------0-----------2-----|-----0-----0-----0-----0--|-----0-----0--3--0--5--0--|
-----3-----------3--------|--------------------------|--------------------------|
--0-----------0-----------|--5-----------5-----------|--5-----------------------|


  E  E  E  E  E  E  E  E     E  E  E  E  E  E  E  E     E  E  E  E  E  E  E  E   
--------------------------|--------------------------|--3-----1-----0-----------|
--0--------1--1--------0--|--0--------1--1--------1--|--------------------3--3--|
--------0-----------0-----|--------0-----------0-----|-----------2--------------|
-----0-----------0--------|-----0-----------0--------|-----2-----------2--------|
--3-----------3-----------|--3-----------3-----2-----|--0-----------0-----------|
--------------------------|--------------------------|--------------------------|


  E  E  E  E  Q    E  E     E  E  E  E  E  E  E  E     E  E  E  E  E  E  E  E   
----------------------0--|--0-----------------------|--------------------------|
--------------3----------|-----------1--1--------0--|--0--------3--3--------1--|
-----------2-------------|-----------0--------------|-----------2--------------|
--------2----------2-----|--------3-----------3-----|--------0-----------2-----|
--0--3--------0----------|-----0-----------0--------|-----3-----------3--------|
-------------------------|--3-----------3-----------|--0-----------0-----------|

                                                      [Pre-Chorus 2]
  E  E  E  E  E  E  E  E     E  E  E  E  E  E  E  E     E  E  E  E  E  E  E  E   
--------------------------|--------------------------|-----------------------0--|
-----------------------0--|--0-----------1-----3--1--|--1-----1--3--3-----3-----|
--5-----0--------5--5-----|--------0-----2-----4-----|--0-----------0-----------|
-----0-----0-----0--------|-----0-----0--3--0--5--0--|-----0-----------2--------|
--------------------------|--------------------------|--3-----------3-----------|
--5-----------5-----------|--5-----------------------|--------------------------|


  E  E  E  E  E  E  E  E     E  E  E  E  E  E  E  E     E  E  E  E  E  E  E  E   
--1-----0-----------------|-----------------------0--|--1-----0-----------------|
--1-----------1--------1--|--1-----1--3--3-----3-----|--1-----------1--------1--|
--------------0-----0-----|--2-----------2-----------|-----------2--2-----0-----|
-----0-----2-----2--------|-----2-----------2--------|-----2-----------2--------|
--3-----------3-----2-----|--0-----------0-----------|--0-----------0-----2-----|
--------------------------|--------------------------|--------------------------|


  E  E  E  E  E  E  E  E     E  E  E  E  E  E  E  E     E  E  E  E  E  E  E  E   
-----------3--3-----------|-----------3--3-----------|--------------------------|
--1-----1-----1-----1--1--|--1-----1-----1-----1--1--|--6--6--5--3--------------|
--------------------------|--------------------------|--0--------------5-----5--|
--3-----------------------|--0-----------------------|-----0-----------0-----0--|
-----0-----------0--------|-----3-----------3--------|--------------------------|
--3-----------3-----------|--0-----------0-----------|--5-----------5-----------|

                           [Chorus 2]
  E  E  E  E  E  E  E  E     E  E  E  E  E  E  E  E     E  E  E  E  E  E  E  E   
--------------------------|-----------------------0--|--1-----0-----------------|
-----------3--3-----------|--3-----3--1--3-----3-----|--1-----------1--------1--|
--5-----0-----0-----0--5--|--0-----------0-----------|--------------0-----0-----|
--5--0-----------0-----5--|-----0-----------2--------|-----0-----2-----2--------|
--------------------------|--3-----------3-----------|--3-----------3-----2-----|
--5-----------5-----------|--------------------------|--------------------------|


  E  E  E  E  E  E  E  E     E  E  E  E  E  E  E  E     E  E  E  E  E  E  E  E   
-----------------------0--|--1-----0-----------------|-----------3--3-----------|
--3-----3--1--3-----3-----|--1-----------1--------1--|--1-----1-----1-----1--1--|
--2-----------2-----------|-----------2--2-----0-----|--------------------------|
-----2-----------2--------|-----2-----------2--------|--3-----------------------|
--0-----------0-----------|--0-----------0-----2-----|-----0-----------0--------|
--------------------------|--------------------------|--3-----------3-----------|


  E  E  E  E  E  E  E  E     E  E  E  E  E  E  Q       H        Q    Q     
-----------3--3-----------|-------------------------|---------------------|
--1-----1-----1-----1--1--|--6--6--5--3--------3----|-----------0----0----|
--------------------------|--0--------------5--0----|-----------0----0----|
--0-----------------------|-----0-----------0-------|--0------------------|
-----3-----------3--------|-------------------------|---------------------|
--0-----------0-----------|--5-----------5----------|--5------------------|


  E  E  E  E  E  E  E  E     E  E  E  E  E  E  E  E     E  E  E  E  E  E  E  E   
--------------------------|--------------------------|--------------------------|
--1--------0--1--------0--|-----------0--1--------0--|-----------0--1--------0--|
--0-----0-----------0-----|--------0-----------0-----|--------2-----------2-----|
-----0-----------0--------|-----0-----------0--------|-----2-----------2--------|
--3-----------3-----------|--3-----------3-----2-----|--0-----------0-----------|
--------------------------|--------------------------|--------------------------|


  E  E  E  E  E  E  E  E     E  E  E  E  E  E  E  E     E  E  E  E  E  E  E  E   
--------------------------|-----------3--3-----------|-----------3--3-----------|
-----------0--1--------1--|--1-----1-----1-----1--1--|--1-----1-----1-----1--1--|
--------2-----------0-----|--------------------------|--------------------------|
-----2-----------2--------|--3-----------------------|--0-----------------------|
--0-----------0-----2-----|-----0-----------0--------|-----3-----------3--------|
--------------------------|--3-----------3-----------|--0-----------0-----------|

                                                [Outro]
  E  E  E  E  E  E  Q       H        Q    Q       E  E  E  E  E  E  E  E   
-------------------------|---------------------|--------------------------|
--6--6--5--3--------3----|-----------0----0----|--1-----------------------|
--0--------------5--0----|-----------0----0----|--0--------0--2--------0--|
-----0-----------0-------|--0------------------|--------3-----------3-----|
-------------------------|---------------------|-----0-----------0--------|
--5-----------5----------|--5------------------|--3-----------3-----------|


  E  E  E  E  E  E  E  E     E  E  E  E  E  E  E  E     E  E  E  E  E  E  E  E   
--------------------------|--------------------------|--------------------------|
--------------------------|-----------0-----------0--|--3--------0--0-----------|
-----------0--2--------0--|--5-----0-----5-----0-----|--0-----0-----0-----5-----|
--------3-----------3-----|--0--0-----------0--------|-----0-----------0--5--0--|
-----0-----------0--------|--------------------------|--------------------------|
--3-----------3-----------|--5-----------5-----------|--5-----------5-----------|

                                                            rall. --------------->50bpm
                                                             |--3--|  |--3--|  |--3--|   
  E  E  E  E  E  E  E  E     E  E  E  E  E  E  E  E     Q    E  E  E  E  E  E  E  E  E   
-----------------------0--|--1-----0-----------------|----------------------------------|
--3-----3--1--3-----3-----|--------------1--------0--|--1----------1--------------0--3--|
--------------------------|-----------2--------0-----|----------2-----0--------0--------|
-----0-----------2--------|-----2-----------2--------|-------3-----------3--1-----------|
--3-----------3-----2-----|--0-----------0-----------|----------------------------------|
--------------------------|--------------------------|--3-------------------------------|

*Resume 76bpm
  ^                     ^                                                 ^                 
                             |--3--|                                                        
  W                     Q    E  E  E  E  E  Q       Q    Q    H           W                 
--7----------------|--7g8------------------------|---------------------|--8----------------|
--8----------------|----8----8-------------------|---------------------|--8----------------|
--7----------------|----9-------7--9--------7----|---------------------|--9----------------|
--9----------------|---10-------------7--9-------|---------------------|-------------------|
-------------------|-----------------------------|--5----7----L--------|-------------------|
-------------------|-----------------------------|---------------------|-------------------|


  W                  
--L----------------||
--L----------------||
--L----------------||
-------------------||
-------------------||
-------------------||




Duration Legend
---------------
W - whole
H - half
Q - quarter
E - 8th
S - 16th
T - 32nd
X - 64th
. - note dotted
|-n-|  - n-tuplets


Tablature Legend
----------------
L - tied note
x - dead note
g - grace note
(n) - ghost note
> - accentuded note
NH - natural harmonic
AH - artificial harmonic
TH - tapped harmonic
SH - semi harmonic
PH - pitch harmonic
h - hammer on
p - pull off
b - bend
br - bendRelease
pb - preBend
pbr - preBendRelease
brb - bendReleaseBend
\n/ - tremolo bar dip
\n - tremolo bar dive
-/n - tremolo bar Release up
/n\ - tremolo bar inverted dip
/n - tremolo bar return
-\n - tremolo bar Release down
S - shift slide
s - legato slide
/ -  slide into from below or out of upwards
\ -  slide into from above or out of downwards
~ - vibrato
W - wide vibrato
tr - trill
TP - tremolo picking
T - tapping
S - slap
P - pop
< - fade in
^ - brush up
v - brush down
Login or Register to remove this ad.

1 comment on Fields of Hope

Great

5

An excellent piece to be sure.