Krone (Guilty Crown) Ukulele Tab

Submitted: May 31, 2015 by CandyCane52

3
Average: 3 (2 votes)
Download | Listen
Game: Guilty Crown
Composer(s): Hiroyuki Sawano, Mika Kobayashi
Style: Transcription

AutoScroll: Slow | Medium | Fast
Krone
Guilty Crown
Hiroyuki Sawano
CandyCane52
23/05/2015

G--------------------------------------------------0---0---0---0---0---0---0----0---0---0---0---0-------------------------------------------------------------
C-3---0-------3----2----3---3-------3----2-------3---------------2----------------0---------------2----3-----------3--------------3------------3--------------
E-----3-----6------1--------4-----6------1---6----------------------------------------------------3--------------6--------1------------------6----------------
A---6-5--6-------3-1------6-5--6-------3-3-5-----5---6---8---6---5---6---8---10---5---6---5---1---5------6-5--6-------3-1---1-6------6-5--6-------3-3-5-1-3-5-

G-------------------------------------------------------------------------------------------------------------------0------------------
C-3----3-----2-------------------------3-----------3-------3---------------------3----3-----2--2-2--0-2-3-2-3----2--2----0--0--0--3--0-
E--1---4-3-4-1--1----------4--3----1-------------6-------------------6------------1---4-3-4-1----1-------------3-1--3-------4--3-----1-
A---1--------1----1--3--1--------1-------6-5--6-------3-1----6-5--6-----3-3-5-1----1--------1----1--3-5-6-5-1----1--2------------------

G-----------------------------------------------------------------------------------------------
C-3-2-3-2-3-2-3-2-3-2-3-2-3-2-3-2-3-2-3-2-3-2-3-2-3-2-3-2-3-2---5---5---5---5---3---3---3---3---
E-------------------------6-----------------------------------6---6---6---6---1---1---1---1---1-
A-6-----------5-----------------------3-----------6-----------5---------------------------------

G-----0--0--0-------------0--0--0---------------------------------------------------------------------------------------------------------------
C-3---2--3--3-3--3-2--3---2--3--3-3--3-3-3-2----3---3---3-------------3---3---3------------------------------------------------0--3-------------
E-----------6----4-1------------6----4-4-4-1--6-6-4-4-3-3----6------6-6-4-4-3-3----6----------------8-------------6-8---3-6--3------1--3----3---
A---6-5--6-------3-1----6-5--6-------3-3-5-1--------------6----8-6--------------6----8-10-10-13--10-----6-8-10-8-------------------------1----3-

G-----0--0--0-------------0--0----------------------------------------------------------------
C-3---2--3--3-3--3-2--3---2--3-------5-5-----7------------------------------------------------
E-----------6----4-1------------6-6---------------13------------------------------------------
A---6-5--6-------3-1----6-5--6--8----8-8-10-10----13--11-10-11-13--8--13--15--13--11-10-13--8-

G-----0--0--0-------------0--0--0---------------------------------------------------------
C-3---2--3--3-3--3-2--3---2--3--3-3--0-2--------------3---------3-------------3-----------
E-----------6----4-1------------6-------3-----------6-----------------------6-------------
A---6-5--6-------3-1----6-5--6-------3---5----5--6--------3-1-------6-5--6--------3-3-5-1-
Login or Register to remove this ad.