Ads

Opening (Guardian's Crusade) Guitar Tab

Submitted: Jan 02, 2011 by Ranulf (Last updated: Jan 02, 2011)

0
Download | Listen
Game: Guardian's Crusade
Composer(s): Luna Umegaki, Yasuhiro Nakano, Akihi Motoyama, Fumio Tanabe, Mutsumi Ishimura
Style: Transcription

AutoScroll: Slow | Medium | Fast
Opening
Guardian's Crusade
Playstation
Tabbed by John Adams
Composed by Yasuhiro Nakano, Akihi Motoyama, Fumio Tanabe, Luna Umegaki, Mutsumi Ishimura
1/2/2011


e|-----------------------------------------------------|
B|-------11---13---10----------------------------------|
G|--10----------------12----8---10-12------------------|
D|--------------------------------------8---12-12---10-|
A|-----------------------------------------------------|
E|-----------------------------------------------------|

|---------------------------------------------|
|-------11---13---10--------------------------|
|--10----------------12----8---10-12----------|
|--------------------------------------8---/8-|
|---------------------------------------------|
|---------------------------------------------|

|-------------------------------------------------------------|
|-------------------------------------------------------------|
|--10--12-13---12--13---10--------10--12-13---12--13---10-----|
|---------------------------12-----------------------------12-|
|-------------------------------------------------------------|
|-------------------------------------------------------------|

|----------------------------------------------------------------------------------|
|----------------------------------------------------------------------------------|
|--10--12-13---12--13---12-13-15-13---12---10--12---10--12---8---------------------|
|---------------------------------------------------------------10----12---13---15-|
|----------------------------------------------------------------------------------|
|----------------------------------------------------------------------------------|

|--11---13---10---------------------------------|
|---------------13---9---11-13------------------|
|--------------------------------8---12-12---10-|
|-----------------------------------------------|
|-----------------------------------------------|
|-----------------------------------------------|

|----11---13---10----------10--11-------10--11---13-|
|11---------------13---13-----------13--------------|
|---------------------------------------------------|
|---------------------------------------------------|
|---------------------------------------------------|
|---------------------------------------------------|
Login or Register to remove this ad.

4 comments on Opening

I am a bit confused but it's because I am new!

What does /8 mean?

I wasn't the only one who

I wasn't the only one who played this game, awesome! XD

the slash indicates a slide,

the slash indicates a slide, and it being a forward slash, means it is a slide upward. i assume you know what a slide is haha

hope that helped

wayfaerer said the slash

wayfaerer said

the slash indicates a slide, and it being a forward slash, means it is a slide upward. i assume you know what a slide is haha

hope that helped

Ah ok, thanks :)