Ads

Frigate (Goldeneye 007) Guitar Tab

Submitted: Feb 02, 2014 by SolidusArmor

4
Average: 4 (1 vote)
Download | Listen
Game: Goldeneye 007
Composer(s): Grant Kirkhope, Robin Beanland, Graeme Norgate
Style: Transcription

AutoScroll: Slow | Medium | Fast
-------------------------------------------------------------------------------
			    Goldeneye-Frigate La Fayette
-------------------------------------------------------------------------------
Tabbed by:SolidusArmor
E-mail:

Tuning:Standard

Tabbed Completly by ear
e|------------------------
B|------------------------
G|------------------------
D|------------------------
A|--7-----3------7----3---
E|--7-----3------7----3---

e|---------------------------------|   |--------------------
B|---------------------------12----|   |--------------------
G|/////13----9-----13----9---------|   |---4-4--5--6-6--5---
D|---------------------------------|   |---4-4--5--6-6--5---
A|---------------------------------|   |--------------------
E|---------------------------------|   |--------------------

e||--------------------
B||--------------------
G||---4-4--5--6-6--5---
D||---4-4--5--6-6--5---
A||--------------------
E||--------------------

e|---------------------------------------------------------------------------|
B|---5---8----15pb16r15--8---11---12---8---7---5-----------------------------|
G|-------------------------------------------------4-------------------------|
D|---------------------------------------------------------------------------|
A|---------------------------------------------------------------------------|
E|---------------------------------------------------------------------------|

e|-----------------------------------------------------------------------------------
B|-----5---8----15pbr1615--8---11---12---8---7-------4--5------5---------------------
G|-----------------------------------------------4-----------------------------------
D|---------------------------------------------------------2-------------------------
A|-----------------------------------------------------------------------------------
E|-----------------------------------------------------------------------------------

e||--------------------
B||--------------------
G||---4-4--5--6-6--5---
D||---4-4--5--6-6--5---
A||--------------------
E||--------------------

e|---------------------------------------------------------------------------|
B|---5---8----16--15--8---11---12---8---7---5--------------------------------|
G|----------------------------------------------6----------------------------|
D|---------------------------------------------------------------------------|
A|---------------------------------------------------------------------------|
E|---------------------------------------------------------------------------|

e|-----------------------------------------------------------------------------------
B|-----5---8----16--15--8---11---12---8---7-------4--5------5------------------------
G|--------------------------------------------4--------------------------------------
D|------------------------------------------------------2----------------------------
A|-----------------------------------------------------------------------------------
E|-----------------------------------------------------------------------------------

---------------------------------------------------------------------------------------------|
---------------------------------------------------------------------------------------------|
--9h11-11-11-11--9-9-9-9--12-12-12-12--11-11----9h11-11-11-11--9-9-9-9--12-12-12-12--11-11---|
---------------------------------------------------------------------------------------------|
---------------------------------------------------------------------------------------------|
---------------------------------------------------------------------------------------------|

e|---------------------------------------------------------------------------------------------------|
B|---------------------------------------------------------------------------15pb17r15----12----12---|
G|--9h11-11-11-11--9-9-9-9--12-12-12-12--11-11----9h11-11-11-12--11--10--9-------------------14------|
D|---------------------------------------------------------------------------------------------------|
A|---------------------------------------------------------------------------------------------------|
E|---------------------------------------------------------------------------------------------------|


************************************

| /   slide up
| \   slide down
| h   hammer-on
| p   pull-off
| ~   vibrato
| +   harmonic
| x   Mute note
| b   Bend
| pb  Pre-bend
| br  Bend release
| pbr Pre-bend release
| brb Bend release bend

************************************
Login or Register to remove this ad.