Venus Lighthouse (Golden Sun) Guitar Tab

Submitted: Nov 16, 2013 by Ecteco

5
Average: 5 (2 votes)
Download | Listen
Game: Golden Sun
Composer(s): Motoi Sakuraba
Style: Arrangement, Fingerstyle

AutoScroll: Slow | Medium | Fast
Title: Venus Lighthouse
Artist: Motoi Sakuraba
Album: ~ Golden Sun ~
November 15 2013
Tabber: Ecteco
Tempo = 124
Nylon Guitar



     ^                                     
E |--2-----------4--5--7--12---|--9-------|
B |--2-----------0-------------|-----0----|
G |--2-------------------------|----------|
D |--4-----------2-------------|----------|
A |----------------------------|--9--7----|
E |----------------------------|----------|

                                                     
--10----------------12h14-12------------------------|
--------------------------------------12------------|
----------------------------------------------------|
----------------------------------------------------|
----------------------------------------------------|
--10----------------------12------------------------|

                                                          
--9-------------------------|--7--9-----------0----------|
----------------------------|--------7L----7-----7-------|
-----------6L-6-------------|----------------------------|
-----------6L-6-------------|-----7----------------------|
--9--------8L-8-------------|--9-------------------------|
----------------------------|----------------------------|

                               ^        
--7--9-----------0----------|--2-------|
--------7L----7-----7--9----|--2--2----|
----------------------------|--2--2----|
----------------------------|--4-------|
--9-------------------------|----------|
----------------------------|----------|

                                                     
--2--------------------------------4--------5-------|
--2-----------------------5--------------5L-5-------|
----------------------------------------------------|
----------------------------------------------------|
----------------------------------------------------|
----------------------------------------------------|

  ^                                     
--2-----------4--5--7--12---|--9-------|
--2-----------0-------------|-----0----|
--2-------------------------|----------|
--4-----------2-------------|----------|
----------------------------|--9--7----|
----------------------------|----------|

                                                             
--10----------------12h14-12------------------------|--9----|
--------------------------------------12------------|-------|
----------------------------------------------------|-------|
----------------------------------------------------|-------|
--------------------12L12---------------------------|--9----|
--10----------------------12------------------------|-------|

                                                            ^       ^        
--7--9-----------0----------|--7--9-----------0----------|--2----|--2--0----|
--------7L----7-----7-------|--------7L----7-----7--9----|--2----|--0-------|
----------------------------|----------------------------|--3----|--1-------|
-----7----------------------|--------6-------------------|--4----|--2-------|
--9-------------------------|--7L-7----------------------|-------|----------|
----------------------------|----------------------------|-------|----------|

                             
-----------14L14-12-10-9----|
----------------------------|
--11------------------------|
--0-----------12------------|
----------------------------|
----------------------------|

                                                     
--7-----------------------7--------9L-9-----10------|
--------------------------0-------------------------|
----------------------------------------------------|
----------------------------------------------------|
--7-----------------------------------------7-------|
----------------------------------------------------|

                             
--9-------------------------|
-----------7--7-------------|
--------------7-------------|
----------------------------|
--9--------9----------------|
----------------------------|

                                                     
----------------------------------------------------|
--7-----------------------7--------9L-9-----10------|
----------------------------------------------------|
----------------------------------------------------|
--7-------------------------------------------------|
----------------------------------------------------|

                                                                           
-----------14L14-12-10-9----|--7-----9--10---|--9--------14L14------------|
--7-------------------------|--------0-------|----------------------------|
----------------------------|----------------|----------------------------|
--0-----------12------------|----------------|----------------------------|
----------------------------|--7-------------|--9-----------16------------|
----------------------------|----------------|-----------14---------------|

                               ^                                     
--13-------14L14----16------|--2-----------4--5--7--12---|--9-------|
----------------------------|--2-----------0-------------|-----0----|
----------------------------|--2-------------------------|----------|
--------------11------------|--4-----------2-------------|----------|
----------------------------|----------------------------|--9--7----|
--9-------------------------|----------------------------|----------|

                                                     
--10----------------12h14-12------------------------|
--------------------------------------12------------|
----------------------------------------------------|
----------------------------------------------------|
--9-------------------------------------------------|
----------------------------------------------------|

                                                          
--9-------------------------|--7--9-----------0----------|
----------------------------|--------7L----7-----7-------|
-----------6L-6-------------|----------------------------|
-----------6L-6-------------|-----7----------------------|
--9--------8L-8-------------|--9-------------------------|
----------------------------|----------------------------|

                               ^       ^
--7--9-----------0----------|--2----|--2--0----|----------------|
--------7L----7-----7--9----|--2----|--0L-0----|--------0-------|
----------------------------|--3----|--1L-1----|--2-------------|
----------------------------|--4----|--2L-2----|----------------|
--9-------------------------|-------|----------|----------------|
----------------------------|-------|----------|--1--1--1--1----|


--1-----------0-------------|-----------0--------0-------|
----------------------------|--3-------------------------|
----------------------------|-----0----------------------|
-----3-----2-----0----------|-----------3-----2-----0----|
-----------------------3----|----------------------------|
--1-----------1-------------|--3-----------------3-------|


--0--------5--5-----3-------|----------------|--------------3-------------|
----------------------------|--1-----0-------|----------------------------|
--------------------0-------|----------------|--2-------------------------|
----------------------------|----------------|-----3-----2-----0----------|
----------------------------|----------------|-----------------------3----|
--3--------3--3--------3----|--1--1--1--1----|--1-----------1-------------|


-----------0L-0L-0--1-------|--5-----3-------|
--3-------------------------|----------------|
-----0----------------------|-----------0----|
-----------3-----2-----0----|----------------|
----------------------------|----------------|
--3-----------3-----3-------|--3--3--3-------|


--0L----------------0-----0-----------------0-------|--2-------------|
-----------------------------------4----------------|--4-------------|
--------------------------2-----------------2-------|--4-------------|
-----------------------------------2L-2-------------|----------------|
--0-----------------0-------------------------------|--2--------2----|
----------------------------------------------------|--------2-------|


--5-----------------------5--------3L-3-----5-------|
----------------------------------------------------|
----------------------------------------------------|
--3-----------------------3-----------------3-------|
--3--------------------------------3----------------|
----------------------------------------------------|


--7-----------7-------------||
----------------------------||
-----------------------0----||
----------------------------||
--------------------6-------||
--3-----------4--7----------||

Legend
L - tied note
x - dead note
h - hammer on/pull off
b - bend
s - slide
~ - vibrato
g - ghost note
> - accentuated note
t - trill
M - palm mute
. - staccato
P - popping (bass)
S - slapping (bass)
+ - tapping
W - wide vibrato
< - fade in
w - whammy bar
= - tremolo picking
v - brush up
^ - brush down
V - pick stroke up
n - pick stroke down

Login or Register to remove this ad.