Vale (Golden Sun) Guitar Tab

Submitted: Oct 27, 2011 by diralark

5
Average: 5 (4 votes)
Download | Listen
Game: Golden Sun
Composer(s): Motoi Sakuraba
Style: Arrangement, Fingerstyle

AutoScroll: Slow | Medium | Fast
                                   Vale      from Golden Sun

Music by Motoi Sakuraba  >> Guitar/Flute arrang. by Kiku @gametabs.net >> solo tab by Diralark

Solo Guitar, Tempo 86, let ring

OST : http://www.youtube.com/watch?v=XMc9xjrnySg

      II                   II                                                            
      ^                    v                                          ^                  
      E  E  E  E  E  E     E  E  E   E  E  E     E  E  E  E  E  E     E  E  E  E  E  E   
E||---5-----------------|--4------------2-----|--0-----------------|--0-----------------|
B||---------------------|--------3h--5-----3--|--------0-----------|-----------3--------|
G||*--------4-----2-----|-----2---------------|--------------2-----|--------2-----2-----|
D||*-----2-----2-----2--|--0------------------|-----2-----2-----2--|-----0-----0-----0--|
A||---0-----------------|---------------------|--0-----------------|--------------------|
E||---------------------|---------------------|--------------------|--3-----------------|


  II          + V(4)       III    -]               VI                                      
                           ^                                                               
  E  E  E  E  E      E     E   E  E   E  E  E      E  E  E  E  E  E     E  E  E  E  E  E   
---------------------5--|--3---5--7--10--9--7--|---------------------|-----------0-----0--|
--2--------3--5---------|----------------------|--10-----------------|--------0-----0-----|
--------4-----2---------|-------------0--------|------------7--------|-----2-----1--------|
-----2------------------|----------------------|---------8-----8-----|--2-----2-----------|
--0---------------------|----------------------|------8-----8-----8--|--------------------|
------------------------|--3-------------------|---6-----------------|--------------------|


  II                    II                    II          + V(4)             II -)        
  ^                     ^                     ^                                           
  E  E  E   E  E  E     E  E  E   E  E  E     E  E  E  E  E      E     E  E  E  E  E  E   
--5------------------|--4------------2-----|---------------------5--|--3--------2--0-----|
--2------------------|--3-----3h--5-----3--|--5--------3--5---------|-----------------3--|
--------2h--4--2-----|-----2---------------|--------4-----2---------|--------2-----0-----|
-----2------------2--|--0------------------|-----2------------------|-----0--------------|
--0------------------|---------------------|--0---------------------|--------------------|
---------------------|---------------------|------------------------|--3-----------------|


  II          + V(4)                                                                                         
                           ^                    ^                                         ^                  
  E  E  E  E  E      E     E  E  E  E  E  E     E  E  E  E  E  E     E  E  E  E  E  E     E  E  E  E  E  E   
---------------------5--|--3--------7--5--3--|--1-----1-----------|--0--------0-----0--|--0--------0--------|
--2--------3--5---------|--------------------|--------------3-----|--------0-----0-----|--------0-----1--0--|
--------4-----2---------|--------0-----0-----|--2--2-----2-----2--|-----2-----1--------|-----0--------------|
-----2------------------|-----0--------------|--0-----------------|--2-----------------|--2-----------------|
--0---------------------|--------------------|--------------------|--------------------|--3-----------------|
------------------------|--3-----------------|--------------------|--------------------|--------------------|


                       Bm7 (II)                    Bm (VII)                                      
                       ^                                                      ^                  
  E  E  E  E  E  E     E        E  E  E  E   E     E        E  E  E  E  E     E  E  E  E  E  E   
--------------0-----|---------------------------|--7-----------------------|--------------------|
--------0--1--0--1--|--3--------------3--2p--0--|--------------7--------7--|-----------3--------|
-----0--------------|--2-----------4------------|-----------7-----7--9-----|--3-----3-----3--2--|
--4-----------------|-----------4---------------|--------------9-----------|-----3-----0--------|
--3--------------3--|--2------------------------|--------------------------|--1-----------------|
--------------------|---------------------------|--7--------------7--------|--------------------|


  Bb (I)                   A7M       A                                                      
                           ^                                             ^                  
                                           |-3-|                                            
  E      E  E  E  E  E     E   E  E  E  E  S S S    E  E  E  E  E  E     E  E  E  E  E  E   
--1---------------1-----|------------------0-----|-----------0--------|--0--------0--------|
---------------3-----3--|--2------------2----2---|--------------------|--------0-----1--0--|
------------3-----2-----|---------1--2---------2-|--------2-----2--1--|-----0--------------|
---------3--------------|------2-----------------|-----2--------------|--------------------|
--1---------------------|--0---------------0-----|--0-----------0-----|--3-----------------|
------------------------|------------------------|--------0-----------|--------------------|


                       Bm (II)                    Bm (VII)                   Bb (I)                 
                       ^                                                     ^                      
  E  E  E  E  E  E     E       E  E  E  E   E     E        E  E  E  E  E     E      E  E  E  E  E   
--------------0-----|--------------------------|--7-----------------------|------------------------|
--0--------1-----1--|--3-------------3--2p--0--|--------------7--------7--|--3------------1--------|
-----0--2-----0-----|-------------4------------|-----------7-----7--9-----|------------3-----3--2--|
--------------------|----------4---------------|--------------------------|---------3--------------|
--3-----------------|--2-----------------------|--------------------------|--1---------------------|
--------------------|--------------------------|--7--------------7--------|------------------------|


  Bb (VI)                   VII                                        F#m                                 
                            ^                                          ^                  ^                
  E       E  E  E  E  E     E   E  E  E  E  E     E  E  E  E  E  E     Q.     E  E  E     Q    E  Q    E   
-------------------------|------------0-----0--|--4--------4--0-----|------------------|------------------|
--6----------------6-----|---------0-----0-----|--------0--------0--|------------------|--0---------------|
----------------7--------|--9------------------|-----1--------------|--2---------------|----------2-------|
-------------8--------8--|--9---7--------------|--------2-----------|---------6--4--2--|--0---------------|
----------8--------------|--7------------------|--------------2-----|--4---------------|--2----2-------2--|
--6-------------6--------|---------------------|--0-----------------|--2---------------|------------------|


  E                                       II                                      E                
  ^                    ^                  ^                   ^                   ^                
  Q    E  E  E   E     Q    E  E  Q       Q    E  E  E  E     Q    E  E  E  E     Q.     E  E  E   
--------------------|------------------|-------------------|-------------------|------------------|
--------------------|------------------|-------------------|--0----------------|------------------|
--1-----------------|------------------|-------------------|-------------------|--1---------1--2--|
----------4--2p--0--|--7-------6-------|--4-------2--------|--0----0-----4-----|--2------------2--|
--2-------2---------|--4---------------|--2----------5--4--|--2-------2-----2--|--2---------------|
--0----0------------|--5----4-----5----|-------2-----------|-------------------|--0------0--------|


                       II                 II                         II          IV               
                       ^                  ^                                      ^                
  E  E  E  E  E  E     Q.     E  E  E     Q    E  Q    E     Q    E  E  E  E     Q    E  E  Q     
--------------------|--5------4--2-----|----------5-------|--4-------2--------|----------4-------|
--0-----------------|---------------5--|--3---------------|-------------5--3--|------------------|
--------------------|--2---------------|----------2-------|--1----------------|--6---------------|
--2-----2--------2--|------------4-----|------------------|-------------------|----------6-------|
-----2-----2--------|--4---------------|--2----2-------2--|----------2--------|--4---------------|
--------------0-----|--2---------------|------------------|--0----0-----------|--5----4-----5----|


  F#m(II)                --                 --]    VII                                                
  ^                      ^                  ^                                                         
  Q       E  E  E  E     Q    E  E  Q       Q.     E   E   E     E  E  E  E  E  E       H.            
--2-------------------|-------------2----|--4-----------------|--7------------------||---------------|
-------------5--3--2--|-------3----------|-------------9--10--|---------------------||---------------|
----------------------|--4---------------|--------------------|--------------------*||---------------|
--4----------2--------|-------------4----|--2--------------7--|-----------------2--*||---------------|
--2-------------------|--2-------2-------|--2-----------------|--7-----7------------||--L------------|
----------2-----------|------------------|---------7----------|-----7-----7--0------||--L------------|


     ^                             
  E  H        E     H.             
-----5--------L--|--L------------||
-----------------|---------------||
-----------------|---------------||
-----2--------L--|--L------------||
-----0--------L--|--L------------||
-----------------|---------------||

Legend
------------------------------------------------------------------------------------------------------------
II + V(4) -  means the main bar of the chord is the 1rst finger + a 2nd bar in the chord using the 4th finger
H - half
Q - quarter
E - 8th
S - 16th
. - note dotted
|-n-|  - n-tuplets
L - tied note
h - hammer on
p - pull off
^ - brush up
Login or Register to remove this ad.

5 comments on Vale

good job, keep em coming C:

5

good job, keep em coming C:

thank u

Hey, i didn't knew this emote, it s a nice one c: C:

Oh hey, you actually did

Oh hey, you actually did it.

Good work on this, thanks for crediting me as well.

You welcome !

As a simple mixer of notes who's actually unable to make his own arrangements, I always try to identify my sources when it s possible then credit them. Anyway u deserved it, your transcription was perfect, I recently retrieved an old friend playing flute, so I ll can play it as duet c:

Ah man, the memories!!

5

Ah man, the memories!!