Ads

Kolima Forest (Golden Sun) Guitar Tab

Submitted: Mar 10, 2010 by bubblingbeebles (Last updated: Oct 27, 2010)

4.8
Average: 4.8 (5 votes)
Download | Listen
Game: Golden Sun
Composer(s): Motoi Sakuraba
Style: Arrangement, Fingerstyle

AutoScroll: Slow | Medium | Fast
Kolima Forest
Golden Sun
Motoi Sakuraba
bubblingbeebles
3/1/2010

E||------------0----|------------------|-----------------|-----------------|
B||-------1---------|--3------1--0-----|--0------1-------|--0----1---------|
G||--2-----2----2---|--0--0---------2--|--2--2------2----|--2---------2----|
D||---2-------------|----0-------------|----3---------3--|----2---------0--|
A||--0---------0----|------------------|-----------------|----------0------|
E||-------0---------|--3---------------|--2--------------|--1--------------|
									
------------0----|------------------|-----------------|-----------------|--0---------0---|
-------1---------|--3------1--0-----|--0------1-------|--0----1----3----|--1------1---1--|
--2--2-------2---|--0--0---------2--|--2-2-------2----|--2-----------0--|--0-----0-------|
---2-------------|----0-------------|---3---------3---|----2-----2------|-----2----------|
--0--------------|------------0-----|-----------------|-----------------|--3---------0---|
-------0---------|--3---------------|--2--------------|--1---------3----|----------------|

-----------------|----------------|-----------------|--0--------0----|-----------------|
--3----1----0----|--1--1----------|--0---1-----3----|--1---1------1--|--3----1----0----|
--0------0----0--|----2-----2-----|----0---0----0---|-----0----------|--0------0----0--|
----0------------|---2-------2----|-----------------|----2------2----|---0-------------|
--2---------0----|--0-------------|------0-----2----|--3-------------|--2--------------|
-----------------|----------------|--3--------------|----------------|-----------------|

------------0----|--0-----------5--|--5--3--1--0--1-----|--2-----7--5--3--2--|
--1------3-------|--2--------------|--3--------------3--|----0---------------|
--2--2-----------|-------2---------|--------------------|--------------0-----|
----2------------|-----------------|--0-----------0-----|--1-----------------|
--0--------------|--4----0---------|--------0-----------|--------------------|
-----------------|-----------------|--------------------|--------7-----------|

--3----2----0----|---------0--2----|--0--------0----|--2---3---5------|--3------------|
-----------------|--3------------3-|--1--1------1---|-----3-----------|--4------------|
----0----2----0--|--0---0----------|----0-----------|---2-------------|--5------------|
-------0---------|-----0-----------|---2------------|--0--------------|---------------|
------------3----|--2--------------|--3-------------|-----------------|---------------|
--0--------------|-----------------|----------------|-----------------|--0------------|

---------------||-------------------|--------------------|--------------0----|
--4------------||-1-----------0--1--|--3--1--0-----------|--1--0--1--3-------|
--5------------|*-2-----2--0--------|--1--------1-----1--|--2----------------|
---------------|*----2--------------|--------------2-----|-------------------|
---------------||-0-----------0-----|--------2-----------|--0-----------0----|
---------------||-------0-----------|--0-----------0-----|--------0----------|

--------------------|--------1--------|--------------------|-----------0-----0--|----------------||
--3-----------------|-----3-----3-----|--3--1--0-----------|--------1-----3-----|--3----0------0-||
-----2--0-----0--2--|--2--------------|--0--------2--0-----|-----0--------------|----0-------0---*|
--0--------4--0-----|---0-0-----------|--------0--------0--|--2-----2-----------|-------0---0----*|
--------0-----------|--0-----0--------|--------------------|--3-----------3-----|--2-------------||
--------------------|-----------------|--3-----------3-----|--------------------| ---------------||  

E||------------0----|------------------|-----------------|---------------------|---------------||
B||-------1---------|--3------1--0-----|--0------1-------|--0----1----0--------|--0------------||
G||--2--------------|--0------------2--|--2---------2----|--2------2-----2-----|--2------------||
D||-----------------|----0-------------|-----3--------3--|------------------3--|--2------------||
A||--0---------0----|------------------|-----------------|-------------------3-|--0------------||
E||-----------------|--3---------------|--2--------------|--1------------------|--0------------||
Login or Register to remove this ad.

3 comments on Kolima Forest

Well done !

5

I can't play music as fast as u so I'm playing it slowly with brush on 1rst beat & it sounds relaxing. this is a nice tab, Thanks !

awesome song but i think

5

awesome song but i think there is a problem on the 23-24 measure where its written '3450, 45' i dont know if that is right but it sounds better '3540, 54' thanks

That was me being dyslexic or

That was me being dyslexic or something...you are completely right.