Alhafra (Golden Sun) Guitar Tab

Submitted: Dec 17, 2012 by Aeter (Last updated: Dec 19, 2012)

5
Average: 5 (6 votes)
Download | Listen
Game: Golden Sun
Composer(s): Motoi Sakuraba
Style: Arrangement, Fingerstyle

AutoScroll: Slow | Medium | Fast
                                                  Alhafra                                                     


                                                                                                Motoi Sakuraba
Guitar



      E  E  E  E  S E  S    E  E  E  Q.        E  E  E  E.  S E     E.  S E  Q    E     E  E  E  E  S E  S  
E||---------0------------|------------------|-----------------0--|-------------------|--------0------------|
B||------1-----3--1-0----|-----0--1---------|-----0--1------1----|--3---1-3----------|-----1-----3--1-0----|
G||*--0----------------2-|--2--------0------|--2--------0--------|-----------0----0--|--0--------0-------2-|
D||*---------------------|------------------|--------------------|-------------------|--2--------0---------|
A||---3------------------|-----------3------|-----------3--------|-------------------|--3------------------|
E||------------3---------|--1---------------|--1-----------------|--3--------3-------|-----------3---------|


  E  E  E  Q.        E  E  E  E.  S E     S S S S S S Q.        S S S S S S E  E  E     S S S S S S Q    E   
------------------|-----------------0--|--1-0----------------|--1-0------------------|--1-0-----------------|
-----0--1---------|-----0--1------1----|--1---0-1---0-1------|--1---3-1-0-1-1-----1--|--1---3-1-0-1-1-------|
--2--------0------|--2--------0--------|--2-------2---0------|--2-----------0--0-----|--2-----------0----0--|
--3--------2------|--3--------2--------|--3-----------2------|--3-----------2--------|--3-----------2-------|
--3--------3------|--3--------3--------|--3-----------3------|--3-----------3--------|--3-----------3-------|
--1---------------|--1-----------------|---------------------|-----------------------|----------------------|


  S S S S S S E  E  E     E.  S E  E  E  E     Q    E  Q.        E  S S S S E  S S S S  
--1-0------------------|--------------------|--3-------3------|--0--------0-1--------1-|
--1---3-1-0-1-1-----1--|------0-1-----3--4--|--3-------3------|-----1---3------3---3---|
--2-----------0--0-----|--2--------5--------|--4-------4------|-------0----------2-----|
--3-----------2--------|--3--------6--------|--5----5--5------|-------------0----------|
--3-----------3--------|--3--------6--------|--5-------5------|--3---------------------|
-----------------------|--------------------|--3-------3------|------------------------|


  E  S S S S E  S S S S    E  S S S S E  S S E     S S S S S S Q.        E  S S S S E  S S S S  
-------------0--------0-|--------------------3--|--1-0----------------|--0--------0-1--------1-|
--3------1-3----1---1---|--1------0-1-3---------|------3-1-0---0------|-----1---3------3---3---|
-----0------------0-----|-----2----------0------|------------2-0------|-------0----------2-----|
-------0----------------|-------3----------0----|--------------0------|-------------0----------|
-------------3----------|-----------------------|--------------2------|--3---------------------|
--3---------------------|--1----------3---------|--1-----------3------|------------------------|


  E  S S S S E  S S S S    E  S S S S E  S S E     S S S S S S Q.        
-------------0--------0-|--------------------3--|--1-0---0-1-5-3-------||
--3------1-3----1---1---|--1------0-1-3---------|------3-------3-------||
-----0------------0-----|-----2----------0------|--------------4------*||
-------0----------------|-------3----------0----|--------------5------*||
-------------3----------|-----------------------|--------------5-------||
--3---------------------|--1----------3---------|--1-----------3-------||
Login or Register to remove this ad.

2 comments on Alhafra

Hey everyone, I'm commenting

5

Hey everyone, I'm commenting so you don't miss this tab!

It got pushed down the "latest tabs" list because submissions got posted out-of-order, so it missed its chance to be on the front page. My fault.

This tab is just perfect and

This tab is just perfect and so much fun to play!

Thank you so very much!! =D