Ads

Izumo in Despair (Golden Sun: The Lost Age) Guitar Tab

Submitted: Oct 27, 2009 by RexLeRouge

0
Download | Listen
Game: Golden Sun: The Lost Age
Composer(s): Motoi Sakuraba
Style: 2 or more instruments, Transcription

AutoScroll: Slow | Medium | Fast
                                                   
Izumo in Despair                                                     


Mélodie
      Em                  Em                  Em                    Em                     Em                  
      W                   W                   H.           E  E     Q.     S S H           H.           E  E   
E||--------------------|-------------------|---------------------|----------------------|---------------------|
B||--------------------|-------------------|---------------------|----------------------|---------------------|
G||*-------------------|-------------------|---------------9-----|----------------------|---------------9-----|
D||*-------------------|-------------------|--9---------------7--|--9------7-9-7--------|--9---------------7--|
A||--------------------|-------------------|---------------------|----------------------|---------------------|
E||--------------------|-------------------|---------------------|----------------------|---------------------|


   F                       Em                    F                        Em                       
   Q.     S  S H           H        Q    Q       Q.     S S S S Q.        Q.     S S S S E  E  E   
------------------------|---------------------|------------------------|--------------------------|
------------------------|---------------------|------------------------|--------------------------|
--10------9-10-9--------|----------------9----|--7---------------------|-------------7------------|
------------------------|-----------9---------|---------9-7-9-7--------|---------7-9---9-9--7--9--|
------------------------|--7------------------|-----------------8------|--7-----------------------|
------------------------|---------------------|------------------------|--------------------------|


   F                      Em                  F                     Em                  F                  
   H        H             W                   W                     W                   H        H         
---------------------||--------------------|--------------------||-------------------|--------------------|
---------------------||--------------------|--------------------||-------------------|--------------------|
--10--------9--------||*-------------------|-------------------*||--9----------------|--9--------7--------|
---------------------||*-------------------|-------------------*||-------------------|--------------------|
---------------------||--------------------|--------------------||-------------------|--------------------|
---------------------||--------------------|--------------------||-------------------|--------------------|


  Em                  F                   
  W                   H        H          
-------------------|--------------------||
-------------------|--------------------||
--9----------------|--9--------7--------||
-------------------|--------------------||
-------------------|--------------------||
-------------------|--------------------||


Xylophone
      Em                                      Em                  Em                  Em                
      W                                       W                   W                   W                 
E||--------------------|-------------------|-------------------|-------------------|-------------------|
B||--------------------|-------------------|-------------------|-------------------|-------------------|
G||*-------------------|-------------------|-------------------|-------------------|-------------------|
D||*-------------------|-------------------|-------------------|-------------------|-------------------|
A||--------------------|-------------------|-------------------|-------------------|-------------------|
E||--------------------|-------------------|-------------------|-------------------|-------------------|


  F                   Em                  F                   Em                  F                 
  W                   W                   W                   W                   W                 
-------------------|-------------------|-------------------|-------------------|-------------------|
-------------------|-------------------|-------------------|-------------------|-------------------|
-------------------|-------------------|-------------------|-------------------|-------------------|
-------------------|-------------------|-------------------|-------------------|-------------------|
-------------------|-------------------|-------------------|-------------------|-------------------|
-------------------|-------------------|-------------------|-------------------|-------------------|


     Em                           F                              Em                           F                         
     S  S  S  S  H.               S  S  S  S  H.                 S  S  S  S  H.               S  S  S  S  H.            
|-----------------------------|-----------------------------||----------------------------|----------------------------|
|-----------------------------|-----------------------------||----------------------------|----------------------------|
|*--------------12------------|----------------------------*||--------------12------------|----------------------------|
|*-----------14---------------|--14-15---------------------*||-----------14---------------|--14-15---------------------|
|---------14------------------|--------12-15----------------||--------14------------------|--------12-15---------------|
|---12-15---------------------|--------------13-------------||--12-15---------------------|--------------13------------|


   Em                           F                          
   S  S  S  S  H.               S  S  S  S  H.             
----------------------------|----------------------------||
----------------------------|----------------------------||
--------------12------------|----------------------------||
-----------14---------------|--14-15---------------------||
--------14------------------|--------12-15---------------||
--12-15---------------------|--------------13------------||




Duration Legend
---------------
W - whole
H - half
Q - quarter
E - 8th
S - 16th
T - 32nd
X - 64th
. - note dotted
|-n-|  - n-tuplets


Tablature Legend
----------------
L - tied note
x - dead note
g - grace note
(n) - ghost note
> - accentuded note
NH - natural harmonic
AH - artificial harmonic
TH - tapped harmonic
SH - semi harmonic
PH - pitch harmonic
h - hammer on
p - pull off
b - bend
br - bendRelease
pb - preBend
pbr - preBendRelease
brb - bendReleaseBend
\n/ - tremolo bar dip
\n - tremolo bar dive
-/n - tremolo bar Release up
/n\ - tremolo bar inverted dip
/n - tremolo bar return
-\n - tremolo bar Release down
S - shift slide
s - legato slide
/ -  slide into from below or out of upwards
\ -  slide into from above or out of downwards
~ - vibrato
W - wide vibrato
tr - trill
TP - tremolo picking
T - tapping
S - slap
P - pop
< - fade in
^ - brush up
v - brush down
Login or Register to remove this ad.