Ads

Pray (Gintama) Bass Tab

Submitted: Jun 10, 2014 by Basisti94 (Last updated: Jul 17, 2014)

0
Download | Listen
Game: Gintama
Composer(s): Audio Highs
Style: Transcription

AutoScroll: Slow | Medium | Fast
                            Pray 


Gintama
Tommy heavenly6
Bass tab by Basisti94 (Miro Laaksonen)
9.6.2014



Tempo ~ 180
             Q    Q    E  E  E  E     E   E  E  E  E  E  E  E   
G||-------|------------------------|---------------------------|
D||-------|--4---------------------|---------------------------|
A||-------|-------2----2--2--2--2--|--0h--2--2--2--2--2--2--2--|
D||-------|------------------------|---------------------------|


  E  E  E  E  E  E  E  E     E  E  E  E  E  E  E  E     Q    Q    E  E  E  E   
--------------------------|--------------------------|------------------------|
--------------------------|--------------------------|------------------------|
--------------------------|--5--5--5--5--0--0--0--0--|--2----2----2--2--2--2--|
--5--5--5--5--5--5--5--5--|--------------------------|------------------------|


  E   E  E  E  E  E  E  E     E  E  E  E  E  E  E  E   
---------------------------|--------------------------|
---------------------------|--5--5--5--5--5--5--5--5--|
--0h--2--2--2--2--2--2--2--|--------------------------|
---------------------------|--------------------------|


  E  E  E  E  E  E  E  E     Q    Q    E  E  E  E     E   E  E  E  E  E  E  E   
--------------------------|------------------------|---------------------------|
--------------------------|------------------------|---------------------------|
--5--5--5--5--0--0--0--0--|--2----2----2--2--2--2--|--0h--2--2--2--2--2--2--2--|
--------------------------|------------------------|---------------------------|


  E  E  E  E  E  E  E  E     E  E  E  E  E  E  E  E     Q    Q    E  E  E  E   
--------------------------|--------------------------|------------------------|
--------------------------|--------------------------|------------------------|
--------------------------|--5--5--5--5--0--0--0--0--|--2----2----2--2--2--2--|
--5--5--5--5--5--5--5--5--|--------------------------|------------------------|


  E   E  E  E  E  E  E  E     E  E  E  E  E  E  E  E   
---------------------------|--------------------------|
---------------------------|--------------------------|
--0h--2--2--2--2--2--2--2--|--------------------------|
---------------------------|--5--5--5--5--5--5--5--5--|


  E  E  E  E  E  E  E  E     Q    E  E  E  E  E  E   
--------------------------|-------------------------|
--------------------------|-------------------------|
--5--5--5--5--0--0--0--0--|-------------------------|
--------------------------|--9----9--9--9--9--9--9--|


  E   E  E  E  E  E  E  E     E  E  E  E  E  E  E  E   
---------------------------|--------------------------|
---------------------------|--------------------------|
---------------------------|--------------------------|
--7h--9--9--9--9--9--9--9--|--5--5--5--5--5--5--5--5--|


  E  E  E  E  E  E  E  E     E  E  E  E  E  E  E  E   
--------------------------|--------------------------|
--------------------------|--------------------------|
--5--5--5--5--------------|--------------------------|
--------------7--7--7--7--|--9--9--9--9--9--9--9--9--|


  E   E  E  E  E  E  E  E     E  E  E  E  E  E  E  E   
---------------------------|--------------------------|
---------------------------|--------------------------|
---------------------------|--------------------------|
--7h--9--9--9--9--9--9--9--|--5--5--5--5--5--5--5--5--|


  E  E  E  E  E  E  E  E     E  E  E  E  E  E  E  E   
--------------------------|--------------------------|
--------------------------|--------------------------|
--5--5--5--5--------------|--------------------------|
--------------7--7--7--7--|--9--9--9--9--9--9--9--9--|


  E   E  E  E  E  E  E  E     E  E  E  E  E  E  E  E   
---------------------------|--------------------------|
---------------------------|--------------------------|
---------------------------|--------------------------|
--7h--9--9--9--9--9--9--9--|--5--5--5--5--5--5--5--5--|


  E  E  E  E  E  E  E  E     E  E  E  E  E  E  E  E   
--------------------------|--------------------------|
--------------------------|--------------------------|
--5--5--5--5--------------|--------------------------|
--------------7--7--7--7--|--9--9--9--9--9--9--9--9--|


  E   E  E  E  E  E  E  E     E  E  E  E  E  E  E  E   
---------------------------|--------------------------|
---------------------------|--------------------------|
---------------------------|--------------------------|
--7h--9--9--9--9--9--9--9--|--5--5--5--5--5--5--5--5--|


  E  E  E  E  E  E  E  E     E  E  E  E  E  E  E  E   
--------------------------|--------------------------|
--------------------------|--------------------------|
--5--5--5--5--------------|--------------------------|
--------------7--7--7--7--|--1--1--1--1--1--1--1--1--|


  E  E  E  E  E  E  E  E     E  E  E  E  E  E  E  E   
--------------------------|--------------------------|
--------------------------|--------------------------|
--------------------------|--2--2--2--2--2--2--2--2--|
--2--2--2--2--2--2--2--2--|--------------------------|


  E   E  E  E  E  E  E  E     E  E  E  E  E  E  E  E   
---------------------------|--------------------------|
---------------------------|--------------------------|
--1h--2--2--2--2--2--2--2--|--------------------------|
---------------------------|--1--1--1--1--1--1--1--1--|


  E  E  E  E  E  E  E  E     E  E  E  E  E  E  E  E   
--------------------------|--------------------------|
--------------------------|--------------------------|
--------------------------|--2--2--2--2--2--2--2--2--|
--2--2--2--2--2--2--2--2--|--------------------------|


  E   E  E  E  E  E  E  E     E  E  E  E  E  E  E  E   
---------------------------|--------------------------|
--8h--9--9--9--9--9--9--9--|--------------------------|
---------------------------|--------------------------|
---------------------------|--1--1--1--1--1--1--1--1--|


  E  E  E  E  E  E  E  E     E  E  E  E  E  E  E  E   
--------------------------|--------------------------|
--------------------------|--------------------------|
--------------------------|--2--2--2--2--2--2--2--2--|
--2--2--2--2--2--2--2--2--|--------------------------|


  E   E  E  E  E  E  E  E     E  E  E  E  E  E  E  E   
---------------------------|--------------------------|
--8h--9--9--9--9--9--9--9--|--------------------------|
---------------------------|--6--6--6--6--6--6--6--6--|
---------------------------|--------------------------|


  E  E  E  E  E  E  E  E     E  E  E  E  E  E  E  E   
--------------------------|--------------------------|
--------------------------|--------------------------|
--7--7--7--7--7--7--7--7--|--4--4--4--4--4--4--4--4--|
--------------------------|--------------------------|


  E  E  E  E  E  E  E  E     E  E  E  E  E  E  E  E   
--------------------------|--------------------------|
--------------------------|--6--6--6--6--6--6--6--6--|
--6--6--6--6--6--6--6--6--|--------------------------|
--------------------------|--------------------------|


  E  E  E  E  E  E  E  E     E  E  E  E  E  E  E  E   
--------------------------|--------------------------|
--2--2--2--2--2--2--2--2--|--9--9--9--9--9--9--9--9--|
--------------------------|--------------------------|
--------------------------|--------------------------|


  E  E  E  E  E  E  E  E     E  E  E  E  E  E  Q       E  E  E  E  E  E  E  E   
--------------------------|-------------------------|--------------------------|
--4--4--4--4--2--2--2--2--|--1--1--1--1-------------|--------------------------|
--------------------------|-------------------------|--------------------------|
--------------------------|--------------1--1--1----|--2--2--2--2--2--2--2--2--|


  E  E  E  E  E  E  E  E     E  E  E  E  E  E  E  E   
--------------------------|--------------------------|
--------------------------|--------------------------|
--4--4--4--4--4--4--4--4--|--6--6--6--6--6--6--6--6--|
--------------------------|--------------------------|


  E  E  E  E  E  E  E  E     E  E  E  E  E  E  E  E   
--------------------------|--------------------------|
--6--6--6--6--6--6--6--6--|--2--2--2--2--2--2--2--2--|
--------------------------|--------------------------|
--------------------------|--------------------------|


  E  E  E  E  E  E  E  E     E  E  E  E  E  E  E  E   
--------------------------|--------------------------|
--------------------------|--------------------------|
--2--2--2--2--2--2--2--2--|--------------------------|
--------------------------|--4--4--4--4--2--2--2--2--|


  E  E  E  E  E  E  E  E     E  E  E  E  E  E  E  E   
--------------------------|--------------------------|
--------------------------|--------------------------|
--------------------------|--------------------------|
--1--1--1--1--1--1--1--1--|--2--2--2--2--2--2--2--2--|


  E  E  E  E  E  E  E  E     E  E  E  E  E  E  E  E   
--------------------------|--------------------------|
--------------------------|--------------------------|
--4--4--4--4--4--4--4--4--|--6--6--6--6--6--6--6--6--|
--------------------------|--------------------------|


  E  E  E  E  E  E  E  E     E  E  E  E  E  E  E  E      Q    Q    E  E  E  E   
--------------------------|---------------------------|------------------------|
--------------------------|---------------------------|------------------------|
--7--7--7--7--7--7--7--7--|--9--9--9--9--9--9--9--9S--|--2----2----2--2--2--2--|
--------------------------|---------------------------|------------------------|


  E   E  E  E  E  E  E  E     E  E  E  E  E  E  E  E   
---------------------------|--------------------------|
---------------------------|--------------------------|
--0h--2--2--2--2--2--2--2--|--------------------------|
---------------------------|--5--5--5--5--5--5--5--5--|


  E  E  E  E  E  E  E  E     Q    Q    E  E  E  E     E   E  E  E  E  E  E  E   
--------------------------|------------------------|---------------------------|
--------------------------|------------------------|---------------------------|
--5--5--5--5--0--0--0--0--|--2----2----2--2--2--2--|--0h--2--2--2--2--2--2--2--|
--------------------------|------------------------|---------------------------|


  E  E  E  E  E  E  E  E     E  E  E  E  E  E  E  E     Q    E  E  E  E  E  E   
--------------------------|--------------------------|-------------------------|
--5--5--5--5--5--5--5--5--|--------------------------|-------------------------|
--------------------------|--5--5--5--5--0--0--0--0--|-------------------------|
--------------------------|--------------------------|--9----9--9--9--9--9--9--|


  E   E  E  E  E  E  E  E     E  E  E  E  E  E  E  E   
---------------------------|--------------------------|
---------------------------|--------------------------|
---------------------------|--------------------------|
--7h--9--9--9--9--9--9--9--|--5--5--5--5--5--5--5--5--|


  E  E  E  E  E  E  E  E     E  E  E  E  E  E  E  E   
--------------------------|--------------------------|
--------------------------|--------------------------|
--5--5--5--5--------------|--------------------------|
--------------7--7--7--7--|--9--9--9--9--9--9--9--9--|


  E   E  E  E  E  E  E  E     E  E  E  E  E  E  E  E   
---------------------------|--------------------------|
---------------------------|--------------------------|
---------------------------|--------------------------|
--7h--9--9--9--9--9--9--9--|--5--5--5--5--5--5--5--5--|


  E  E  E  E  E  E  E  E     E  E  E  E  E  E  E  E   
--------------------------|--------------------------|
--------------------------|--------------------------|
--5--5--5--5--------------|--------------------------|
--------------7--7--7--7--|--9--9--9--9--9--9--9--9--|


  E   E  E  E  E  E  E  E     E  E  E  E  E  E  E  E   
---------------------------|--------------------------|
---------------------------|--------------------------|
---------------------------|--------------------------|
--7h--9--9--9--9--9--9--9--|--5--5--5--5--5--5--5--5--|


  E  E  E  E  E  E  E  E     E  E  E  E  E  E  E  E   
--------------------------|--------------------------|
--------------------------|--------------------------|
--5--5--5--5--------------|--------------------------|
--------------7--7--7--7--|--9--9--9--9--9--9--9--9--|


  E   E  E  E  E  E  E  E     E  E  E  E  E  E  E  E   
---------------------------|--------------------------|
---------------------------|--------------------------|
---------------------------|--------------------------|
--7h--9--9--9--9--9--9--9--|--5--5--5--5--5--5--5--5--|


  E  E  E  E  E  E  E  E     E  E  E  E  E  E  E  E   
--------------------------|--------------------------|
--------------------------|--------------------------|
--5--5--5--5--------------|--------------------------|
--------------7--7--7--7--|--1--1--1--1--1--1--1--1--|


  E  E  E  E  E  E  E  E     E  E  E  E  E  E  E  E   
--------------------------|--------------------------|
--------------------------|--------------------------|
--------------------------|--2--2--2--2--2--2--2--2--|
--2--2--2--2--2--2--2--2--|--------------------------|


  E   E  E  E  E  E  E  E     E  E  E  E  E  E  E  E   
---------------------------|--------------------------|
---------------------------|--------------------------|
--1h--2--2--2--2--2--2--2--|--------------------------|
---------------------------|--1--1--1--1--1--1--1--1--|


  E  E  E  E  E  E  E  E     E  E  E  E  E  E  E  E   
--------------------------|--------------------------|
--------------------------|--------------------------|
--------------------------|--2--2--2--2--2--2--2--2--|
--2--2--2--2--2--2--2--2--|--------------------------|


  E   E  E  E  E  E  E  E     E  E  E  E  E  E  E  E   
---------------------------|--------------------------|
--8h--9--9--9--9--9--9--9--|--------------------------|
---------------------------|--------------------------|
---------------------------|--1--1--1--1--1--1--1--1--|


  E  E  E  E  E  E  E  E     E  E  E  E  E  E  E  E   
--------------------------|--------------------------|
--------------------------|--------------------------|
--------------------------|--2--2--2--2--2--2--2--2--|
--2--2--2--2--2--2--2--2--|--------------------------|


  E   E  E  E  E  E  E  E     E  E  E  E  E  E  E  E   
---------------------------|--------------------------|
--8h--9--9--9--9--9--9--9--|--------------------------|
---------------------------|--6--6--6--6--6--6--6--6--|
---------------------------|--------------------------|


  E  E  E  E  E  E  E  E     E  E  E  E  E  E  E  E   
--------------------------|--------------------------|
--------------------------|--------------------------|
--7--7--7--7--7--7--7--7--|--4--4--4--4--4--4--4--4--|
--------------------------|--------------------------|


  E  E  E  E  E  E  E  E     E  E  E  E  E  E  E  E   
--------------------------|--------------------------|
--------------------------|--6--6--6--6--6--6--6--6--|
--6--6--6--6--6--6--6--6--|--------------------------|
--------------------------|--------------------------|


  E  E  E  E  E  E  E  E     E  E  E  E  E  E  E  E   
--------------------------|--------------------------|
--2--2--2--2--2--2--2--2--|--9--9--9--9--9--9--9--9--|
--------------------------|--------------------------|
--------------------------|--------------------------|


  E  E  E  E  E  E  E  E     E  E  E  E  E  E  Q       E  E  E  E  E  E  E  E   
--------------------------|-------------------------|--------------------------|
--4--4--4--4--2--2--2--2--|--1--1--1--1--1--1-------|--------------------------|
--------------------------|-------------------------|--------------------------|
--------------------------|--------------------1----|--2--2--2--2--2--2--2--2--|


  E  E  E  E  E  E  E  E     E  E  E  E  E  E  E  E   
--------------------------|--------------------------|
--------------------------|--------------------------|
--4--4--4--4--4--4--4--4--|--6--6--6--6--6--6--6--6--|
--------------------------|--------------------------|


  E  E  E  E  E  E  E  E     E  E  E  E  E  E  E  E   
--------------------------|--------------------------|
--6--6--6--6--6--6--6--6--|--2--2--2--2--2--2--2--2--|
--------------------------|--------------------------|
--------------------------|--------------------------|


  E  E  E  E  E  E  E  E     E  E  E  E  E  E  E  E   
--------------------------|--------------------------|
--------------------------|--------------------------|
--2--2--2--2--2--2--2--2--|--------------------------|
--------------------------|--4--4--4--4--2--2--2--2--|


  E  E  E  E  E  E  E  E     E  E  E  E  E  E  E  E   
--------------------------|--------------------------|
--------------------------|--------------------------|
--------------------------|--------------------------|
--1--1--1--1--1--1--1--1--|--2--2--2--2--2--2--2--2--|


  E  E  E  E  E  E  E  E     E  E  E  E  E  E  E  E   
--------------------------|--------------------------|
--------------------------|--------------------------|
--4--4--4--4--4--4--4--4--|--6--6--6--6--6--6--6--6--|
--------------------------|--------------------------|


  E  E  E  E  E  E  E  E     E  E  E  E  E  E  E  E     Q    E  Q    E  Q     
--------------------------|--------------------------|-----------------------|
--------------------------|--------------------------|-----------------------|
--7--7--7--7--7--7--7--7--|--9--9--9--9--9--9--9--9--|--6----6--7----7--2----|
--------------------------|--------------------------|-----------------------|


  E   E  E  E  E  E  E  E     Q    E  Q    E  Q       E   E  E  E  E  E  E  E   
---------------------------|-----------------------|---------------------------|
---------------------------|--1----1--2----2-------|---------------------------|
--0h--2--2--2--2--2--2--2--|------------------2----|--0h--2--2--2--2--2--2--2--|
---------------------------|-----------------------|---------------------------|


  Q    E  Q    E  Q       E   E  E  E  E  E  E  E     Q    E  Q    E  Q     
-----------------------|---------------------------|-----------------------|
--1----1--2----2-------|---------------------------|--1----1--2----2-------|
------------------2----|--0h--2--2--2--2--2--2--2--|------------------2----|
-----------------------|---------------------------|-----------------------|


  E   E  E  E  E  E  E  E     Q    E  Q    E  Q       E   E  E  E  E  E  E  E   
---------------------------|-----------------------|---------------------------|
---------------------------|--1----1--2----2-------|---------------------------|
--0h--2--2--2--2--2--2--2--|------------------2----|--0h--2--2--2--2--2--2--2--|
---------------------------|-----------------------|---------------------------|


  Q    E  Q    E  Q       E   E  E  E  E  E  E  E     Q    E  Q    E  Q     
-----------------------|---------------------------|-----------------------|
--1----1--2----2-------|---------------------------|--1----1--2----2-------|
------------------2----|--0h--2--2--2--2--2--2--2--|------------------2----|
-----------------------|---------------------------|-----------------------|


  E   E  E  E  E  E  E  E     Q    E  Q    E  Q       E   E  E  E  E  E  E  E   
---------------------------|-----------------------|---------------------------|
---------------------------|--1----1--2----2-------|---------------------------|
--0h--2--2--2--2--2--2--2--|------------------2----|--0h--2--2--2--2--2--2--2--|
---------------------------|-----------------------|---------------------------|


  E  E  E  E  E  E  E  E     E  E  E  E  E  E  E  E   
--------------------------|--------------------------|
--------------------------|--------------------------|
--------------------------|--------------------------|
--1--1--1--1--1--1--1--1--|--2--2--2--2--2--2--2--2--|


  E  E  E  E  E  E  E  E     E   E  E  E  E  E  E  E   
--------------------------|---------------------------|
--------------------------|---------------------------|
--2--2--2--2--2--2--2--2--|--1h--2--2--2--2--2--2--2--|
--------------------------|---------------------------|


  E  E  E  E  E  E  E  E     E  E  E  E  E  E  E  E   
--------------------------|--------------------------|
--------------------------|--------------------------|
--------------------------|--------------------------|
--1--1--1--1--1--1--1--1--|--2--2--2--2--2--2--2--2--|


  E  E  E  E  E  E  E  E     E   E  E  E  E  E  E  E   
--------------------------|---------------------------|
--------------------------|---------------------------|
--2--2--2--2--2--2--2--2--|--1h--2--2--2--2--2--2--2--|
--------------------------|---------------------------|


  E  E  E  E  E  E  E  E     E  E  E  E  E  E  E  E   
--------------------------|--------------------------|
--------------------------|--------------------------|
--------------------------|--------------------------|
--1--1--1--1--1--1--1--1--|--2--2--2--2--2--2--2--2--|


  E  E  E  E  E  E  E  E     E   E  E  E  E  E  E  E     E  E  H.            
--------------------------|---------------------------|---------------------|
--------------------------|---------------------------|---------------------|
--2--2--2--2--2--2--2--2--|--1h--2--2--2--2--2--2--2--|--6--6---------------|
--------------------------|---------------------------|---------------------|


  E  E  H.              E  E  H.              E  E  E  E  E  Q.      
---------------------|---------------------|------------------------|
---------------------|---------------------|------------------------|
--7--7---------------|--4--4---------------|--6--6--6--6--6---------|
---------------------|---------------------|------------------------|


-----------|-----------|-----------|-----------|-----------|-----------|
-----------|-----------|-----------|-----------|-----------|-----------|
-----------|-----------|-----------|-----------|-----------|-----------|
-----------|-----------|-----------|-----------|-----------|-----------|


              H.           E.  S     E  E  E  E  E  E  E  E   
-----------|----------------------|--------------------------|
-----------|-------------------1s-|--6--6--6--6--6--6--6--6--|
-----------|----------------------|--------------------------|
-----------|----------------------|--------------------------|


  E  E  E  E  E  E  E  E     E  E  E  E  E  E  E  E   
--------------------------|--------------------------|
--2--2--2--2--2--2--2--2--|--9--9--9--9--9--9--9--9--|
--------------------------|--------------------------|
--------------------------|--------------------------|


  E  E  E  E  E  E  E  E     E  E  E  E  E  E  Q       E  E  E  E  E  E  E  E   
--------------------------|-------------------------|--------------------------|
--4--4--4--4--2--2--2--2--|--1--1--1--1-------------|--------------------------|
--------------------------|-------------------------|--------------------------|
--------------------------|--------------1--1--1----|--2--2--2--2--2--2--2--2--|


  E  E  E  E  E  E  E  E     E  E  E  E  E  E  E  E   
--------------------------|--------------------------|
--------------------------|--------------------------|
--4--4--4--4--4--4--4--4--|--6--6--6--6--6--6--6--6--|
--------------------------|--------------------------|


  E  E  E  E  E  E  E  E     E  E  E  E  E  E  E  E   
--------------------------|--------------------------|
--6--6--6--6--6--6--6--6--|--2--2--2--2--2--2--2--2--|
--------------------------|--------------------------|
--------------------------|--------------------------|


  E  E  E  E  E  E  E  E     E  E  E  E  E  E  E  E   
--------------------------|--------------------------|
--------------------------|--------------------------|
--2--2--2--2--2--2--2--2--|--------------------------|
--------------------------|--4--4--4--4--2--2--2--2--|


  E  E  E  E  E  E  E  E     E  E  E  E  E  E  E  E   
--------------------------|--------------------------|
--------------------------|--------------------------|
--------------------------|--------------------------|
--1--1--1--1--1--1--1--1--|--2--2--2--2--2--2--2--2--|


  E  E  E  E  E  E  E  E     E  E  E  E  E  E  E  E   
--------------------------|--------------------------|
--------------------------|--------------------------|
--4--4--4--4--4--4--4--4--|--6--6--6--6--6--6--6--6--|
--------------------------|--------------------------|


  E  E  E  E  E  E  E  E     E  E  E  E  E  E  E  E     Q    Q    E  E  E  E   
--------------------------|--------------------------|------------------------|
--------------------------|--------------------------|------------------------|
--7--7--7--7--7--7--7--7--|--9--9--9--9--9--9--9--9--|--2----2----2--2--2--2--|
--------------------------|--------------------------|------------------------|


  E   E  E  E  E  E  E  E     E  E  E  E  E  E  E  E   
---------------------------|--------------------------|
---------------------------|--5--5--5--5--5--5--5--5--|
--0h--2--2--2--2--2--2--2--|--------------------------|
---------------------------|--------------------------|


  E  E  E  E  E  E  E  E     E  E  Q    E  E  E  E   
--------------------------|-------------------------|
--------------------------|-------------------------|
--5--5--5--5--0--0--0--0--|--2--2--2----2--2--2--2--|
--------------------------|-------------------------|


  E   E  E  E  E  E  E  E     E  E  E  E  E  E  E  E   
---------------------------|--------------------------|
---------------------------|--5--5--5--5--5--5--5--5--|
--0h--2--2--2--2--2--2--2--|--------------------------|
---------------------------|--------------------------|


  E  E  E  E  E  E  E  E     W                  
--------------------------|-------------------||
--------------------------|-------------------||
--5--5--5--5--0--0--0--0--|--2----------------||
--------------------------|-------------------||


I recently started watching Gintama and this song was pretty badass
so I had to learn it.


Duration Legend
---------------
W - whole
H - half
Q - quarter
E - 8th
S - 16th
T - 32nd
X - 64th
. - note dotted
|-n-|  - n-tuplets


Tablature Legend
----------------
L - tied note
x - dead note
g - grace note
(n) - ghost note
> - accentuded note
NH - natural harmonic
AH - artificial harmonic
TH - tapped harmonic
SH - semi harmonic
PH - pitch harmonic
h - hammer on
p - pull off
b - bend
S - shift slide
s - legato slide
/ -  slide into from below or out of upwards
\ -  slide into from above or out of downwards
~ - vibrato
W - wide vibrato
tr - trill
TP - tremolo picking
T - tapping
S - slap
P - pop
< - fade in
^ - brush up
v - brush down
Login or Register to remove this ad.