Ads

Reincarnation (Ghost Trick: Phantom Detective) Guitar Tab

Submitted: Mar 27, 2011 by Squaretom

5
Average: 5 (1 vote)
Download | Listen
Game: Ghost Trick: Phantom Detective
Composer(s): Masakazu Sugimori
Style: Alternate picking, Transcription

AutoScroll: Slow | Medium | Fast
Reincarnation
Ghost Trick : Phantom Detective


e|---------------12-------15--13--12-------------------------------------12-------|
B|-------13-15------13----------------13---13-15-13-13---13---12-13---15----13-15-|
G|-12-14--------------------------------------------------------------------------|
D|--------------------------------------------------------------------------------|
A|--------------------------------------------------------------------------------|
E|--------------------------------------------------------------------------------|

e|---------------12-------15--13--12----------------------15-----------------|
B|-------13-15------13----------------13---13-15-15-13-----------------13-15-|
G|-12-14--------------------------------------------------------12--14-------|
D|---------------------------------------------------------------------------|
A|---------------------------------------------------------------------------|
E|---------------------------------------------------------------------------|

e|---------------12-------15--13--12-------------------------------------12-------|
B|-------13-15------13----------------13---13-15-13-13---13---12-13---15----13-15-|
G|-12-14--------------------------------------------------------------------------|
D|--------------------------------------------------------------------------------|
A|--------------------------------------------------------------------------------|
E|--------------------------------------------------------------------------------|

e|---------------12-------15--15--13--12----------------15---15--13-12--------------|
B|-------13-15------13--------------------13-15-15-13------------------13--13-15-13-|
G|-12-14----------------------------------------------------------------------------|
D|----------------------------------------------------------------------------------|
A|----------------------------------------------------------------------------------|
E|----------------------------------------------------------------------------------|

e|--------------------12-------------------------------15-12-------------|
B|-13---13---12-13-15--------13-12-13---13---12-13-15--------------------|
G|----------------------12-----------------------------------------------|
D|-----------------------------------------------------------------------|
A|-----------------------------------------------------------------------|
E|-----------------------------------------------------------------------|

e|-----------------------12-------12-13-15----------------12-----------|
B|----13---13---12-13-15--------------------13--12-13--15-----13-15----|
G|-12----------------------12--12--------------------------------------|
D|---------------------------------------------------------------------|
A|---------------------------------------------------------------------|
E|---------------------------------------------------------------------|

e|-12-13-15-------------------------------12-13-15----------------12-13-12--------|
B|-----------13--13h15-13------13-12-13-------------13--13h15-13------------13-15-|
G|-------------------------12-----------------------------------------------------|
D|--------------------------------------------------------------------------------|
A|--------------------------------------------------------------------------------|
E|--------------------------------------------------------------------------------|

e|----15------------------------------12--------13-12-----15-13-12----------------|
B|-13-----13--13h15-13------13-12-13-----15-13--------13------------13-15--13-----|
G|----------------------12--------------------------------------------------------|
D|--------------------------------------------------------------------------------|
A|--------------------------------------------------------------------------------|
E|--------------------------------------------------------------------------------|
Login or Register to remove this ad.

1 comment on Reincarnation

Pretty spot on with this,

5

Pretty spot on with this, great job!