4 Minutes Before Death ~ Variation (Ghost Trick: Phantom Detective) Bass Tab

Submitted: May 14, 2014 by Sage

5
Average: 5 (1 vote)
Download | Listen
Game: Ghost Trick: Phantom Detective
Composer(s): Masakazu Sugimori
Style: Transcription

AutoScroll: Slow | Medium | Fast
Song: 4 Minutes Before Death ~ Variation
Game: Ghost Trick: Phantom Detective
Composer: Masakazu Sugimori
Tabbed by: Jackson Harris
Date Created: 5/10/2014

G|--------------------------------------|
D|-------------------------------8-8-10-|  (x4)
A|--------------------------------------|
E|-8-8-8-8-8-8-8-8-8-888-8-8-8-8--------|

G|-------------------------------------|
D|-------------------------------6-6-8-| (x2)
A|-------------------------------------|
E|-6-6-6-6-6-6-6-6-6-666-6-6-6-6-------|

(Rest)

G|--------------------------------------|
D|-------------------------------8-8-10-|  (x2)
A|--------------------------------------|
E|-8-8-8-8-8-8-8-8-8-888-8-8-8-8--------|

G|-------------------------------8-8-10-|
D|--------------------------------------|
A|-8-8-8-8-8-8-8-8-8-888-8-8-8-8--------|
E|--------------------------------------|

G|-----------------------------------10-10-12-|
D|--------------------------------------------|
A|-8-8-8-8-8-8-8-8-8-888-10-10-10-10----------|
E|--------------------------------------------|

G|---------|
D|---------|
A|---8-----|
E|-8---6-7-|
Login or Register to remove this ad.