Ads

Konda Village Night (Genshin Impact) Guitar Tab

Submitted: Sep 02, 2021 by guitarsvd (Last updated: Sep 03, 2021)

5
Average: 5 (2 votes)
Download | No audio :(
Game: Genshin Impact
Style: Arrangement, Fingerstyle, Natural harmonics

Click here for a video example.

AutoScroll: Slow | Medium | Fast
                              Konda Village Night                               


                                                          Cecil Chau (GuitarSVD)
Guitarra



     Q       E  E  Q    E  E  Q       E  E  E  E  E  E  Q     
E||-------|--------5----3-----8----|--5-----3--1-------------|
B||-------|--3-----3----------8----|--------1-----3----------|
G||--2----|-----2----------0-------|-----2--------------3----|
D||-------|--0---------------------|-----------------3-------|
A||-------|-------------3----------|--------------1----------|
E||-------|------------------------|--1----------------------|


  E  E  E  E  E  E  E  E     E  E  E  E  Q    E  E     E  E  Q    E  E  E  E   
--------0--1--0-----1--3--|--5----------------------|--------5----3-----8-----|
--3-----------------------|-------------------------|--3-----3-------------8--|
--------0-----------0-----|-----------0--2-------2--|-----2----------0--L-----|
-----0-----------2--------|--------3----------------|--0----------------------|
--------------3-----------|-----3-------------------|-------------3-----------|
--3-----------------------|--1----------------------|-------------------------|


  E  E  E  E  E  E  Q       E  E  E  E  E   E   E  E   
--5-----3--1-------------|--------0--1------8---------|
--------1-----3----------|--3-----------8-------------|
-----2--------------3----|--------0----------------9--|
-----------------3-------|-----0---------------10-----|
--------------1----------|-----------------10---------|
--1----------------------|--3-----------8-------------|


              ^             ^                                             
  E  E  E  E  Q    E  E     E  E  Q    E  E  E  E     E  E  H.            
--------1----------------|-----1--3----L--5--3--1--|---------------------|
--3-----------3-------1--|--3-----3----L-----------|--3--1---------------|
-----2-----2--2----------|--3--3-------------------|--2-----2------------|
--0-----------0----------|--3----------------------|--------2------------|
-------------------------|--1----------------------|--0------------------|
-------------------------|-------------------------|---------------------|


  ^                                                             ^            
  E  E  Q    E  E  E  E     E  E  H        E  E     E  E  E  E  E  E  E  E   
--------3----L--5--3--1--|--3--5--5--------------|-----1--3-----L--5--3--1--|
--3--6--3----L-----1-----|--1-----1-----------1--|--3-----3-----2-----------|
--3--3-------------0-----|--2--2-----------2-----|-----------3--3-----------|
--5----------------2-----|-----------------------|-----3--------3-----------|
-------------------------|-----------------------|--1-----------1-----------|
--3----------------------|--1--------------------|--------------------------|


             ^                                                  ^           
  E  E  Q    H           E  E  E  E  E  E  E  E     E  E  E  E  Q    E  E   
----------------------|--------3--5--3-----------|--------3--5--0----------|
--3--1----------------|--3--6-----3--3-----------|--3--6-----3--2-------1--|
--------2----2--------|--------3--------3--------|--------3-----2----2-----|
-----3--L----3--------|--------------------5-----|-----3----------------3--|
--0----------0--------|-----5-----------------5--|--------------0----0-----|
----------------------|--3-----------------------|--0----------------------|


          ^                                                           
  S S S S S S S S S S S S S S S S    S S S S S S S S S S S S S S S S  
------1---3-------L---5---3---1---|----------------------------------|
--3-------3---3-------3---3---3---|--3---1-----1-----------------1---|
------3---3-3---3---3---3---3---3-|------2---2---0-------0-2-2---2---|
----3---3-------------------------|----2---2-------3---3-----3-3---3-|
--1---------------1---------------|--0---------------3---------------|
----------------------------------|----------------------------------|


  S S S S S  S S S S S S  S S S S S    S S S S S S E  Q    E  E   
------1---3--------L---5----3---1---|--3---8---5-----------------|
--3-------------------------1-------|------8------------------1--|
------0---0h-2-0-------0h-2---2-0---|----2---0---2-0--2----2-----|
----0---3--------3---2------------3-|--0-------0------3----------|
-------------------3----------------|----------------------------|
--3---------------------------------|----------------------------|


             ^                         ^                       ^          
  E  E  Q    E  E  E  E     E  E  Q    H           E  E  E  E  Q.     E   
--------3----L--5--3--1--|----------------------|-----1--3--5--0---------|
--3--6--3----2-----------|--3--1----------------|--3-----------1------1--|
--4----------3-----------|--2-----2----1--------|--------0-----0---------|
-----3-------------------|-----3-------3--------|-----0------------------|
-------------1-----------|--0-------------------|--------------0---------|
--3----------------------|-------------4--------|--3---------------------|


              ^                                                         
  E  E  E  E  Q    E  E     E  E  E  E  Q.     E     H.           Q     
-------------------------|-----1--3--5--8---------|--------------------|
--3-----1-----3-------1--|--3-----------5------5--|--------------------|
--------------3----2-----|--0-----------5---------|--5------------2----|
-----3-----3--3----------|--0---------------------|--------------------|
--1----------------------|--------------0---------|--------------------|
-------------------------|--3---------------------|--------------------|


  E  E  Q    E  E  Q       E  E  E  E  E  E  Q       E  E  E  E  E  E  E  E   
--------5----3-----8----|--5-----3--1-------------|--------0--1--0-----1--3--|
--3-----3----------8----|--------1-----3----------|--3-----------------------|
-----2----------0-------|-----2--------------3----|--------0-----------0-----|
--0---------------------|-----------------3-------|-----0-----------2--------|
-------------3----------|--------------1----------|--------------3-----------|
------------------------|--1----------------------|--3-----------------------|


  E  E  E  E  Q    E  E     E  E  Q    E  E  E  E     E  E  E  E  E  E  Q     
--5----------------------|--------5----3-----8-----|--5-----3--1-------------|
-------------------------|--3-----3-------------8--|--------1-----3----------|
-----------0--2-------2--|-----2----------0--L-----|-----2--------------3----|
--------3----------------|--0----------------------|-----------------3-------|
-----3-------------------|-------------3-----------|--------------1----------|
--1----------------------|-------------------------|--1----------------------|


                                                                  NH       
  E  E  E  E  E   E   E  E     E  E  E  E  E  E  E    E     E     E  Q     
--------0--1------8---------|--------------1--5--7br--5--|-----<>12-------|
--3-----------8-------------|--3-----0--3----------------|--6--------3----|
--------0----------------9--|-----2----------------------|-----------2----|
-----0---------------10-----|--0-------------------------|-----------0----|
-----------------10---------|----------------------------|----------------|
--3-----------8-------------|----------------------------|----------------|


  Q      
-------||
--L----||
--L----||
--L----||
-------||
-------||




Duration Legend
---------------
W - whole
H - half
Q - quarter
E - 8th
S - 16th
T - 32nd
X - 64th
. - note dotted
|-n-|  - n-tuplets


Tablature Legend
----------------
L - tied note
x - dead note
g - grace note
(n) - ghost note
> - accentuded note
NH - natural harmonic
AH - artificial harmonic
TH - tapped harmonic
SH - semi harmonic
PH - pitch harmonic
h - hammer on
p - pull off
b - bend
br - bendRelease
pb - preBend
pbr - preBendRelease
brb - bendReleaseBend
\n/ - tremolo bar dip
\n - tremolo bar dive
-/n - tremolo bar Release up
/n\ - tremolo bar inverted dip
/n - tremolo bar return
-\n - tremolo bar Release down
S - shift slide
s - legato slide
/ -  slide into from below or out of upwards
\ -  slide into from above or out of downwards
~ - vibrato
W - wide vibrato
tr - trill
TP - tremolo picking
T - tapping
S - slap
P - pop
< - fade in
^ - brush up
v - brush down
Login or Register to remove this ad.

1 comment on Konda Village Night

Yayayayaa

5

Yayayayaa