Ads

A Rainy Morning (The Garden of Words) Guitar Tab

Submitted: Aug 02, 2013 by Basisti94

5
Average: 5 (2 votes)
Download | Listen
Game: The Garden of Words
Composer(s): Daisuke Kashiwa
Style: 2 or more instruments, Arrangement, Fingerstyle

This song is also called Main Title

AutoScroll: Slow | Medium | Fast
                          A Rainy Morning ~Main Title~
                                
Kotonoha no Niwa / The Garden of Words
Kashiwa Daisuke
Guitar arrangement by Basisti94 (Miro Laaksonen)
2.8.2013

--------------
I tabbed main part to work as a solo arrangement, so that's
why it shares some notes with backing guitar.

The tempo on the song varies greatly. I tried to add some of those
variations to the midi, but I'd recommend to listen the original song too.

Pay attention to capos on fourth and first fret too.
---------------

Main part:

Tempo ~ freely
Capo 4 

     ^                                    ^               ^             
     E  E  E  E  E  E     H.              H.              H.            
E||-----------2--0-----|---------------|--0------------|--2------------|
B||--2--0--2--------2--|--L------------|--0------------|---------------|
G||--2-----------------|---------------|--1------------|--1------------|
D||--2-----------------|---------------|---------------|--2------------|
A||--------------------|---------------|---------------|---------------|
E||--------------------|---------------|---------------|---------------|


  ^                                     ^               ^              
  E  E  E  E  E  E     H        Q       H.              H        Q     
-----------2--0-----|----------------|--0------------|----------------|
--2--0--2--------2--|--L--------2----|--0------------|--2--------0----|
--2-----------------|----------------|--1------------|--1-------------|
--4-----------------|----------------|---------------|--2-------------|
--------------------|----------------|---------------|----------------|
--------------------|----------------|---------------|----------------|


  |--3--|                                                    
  E  E  E  Q    Q       Q    E  E  Q       Q    E  E  E  E   
-----0--2--4----2----|--4----------5----|--5-------2--------|
--2-------------2----|----------2-------|-------------------|
-----------2---------|-------2----------|-------------------|
--0------------------|------------------|----------------2--|
---------------------|------------------|----------2--4-----|
---------------------|------------------|--0----4-----------|


                       ^                  ^                  ^                
  E  E  E  E  E  E     E  E  E  Q.        E  E  E  Q.        E  E  E  Q.      
--------------4--7--|-----------0------|-----------2------|-----------4------|
-----0--3--6--------|--2--0--2---------|--2--0--2---------|--2--0--2---------|
--2-----------------|--2---------------|--2---------------|--2---------------|
--------------------|--4---------------|--4---------------|--2---------------|
--------------------|------------------|------------------|------------------|
--------------------|------------------|------------------|------------------|


                      ^                  ^                  ^             
  E  E  Q    E  E     E  E  E  Q.        E  E  E  Q.        H.            
--5-----4----0-----|-----------0------|-----------2------|---------------|
----------------2--|--2--0--2---------|--2--0--2---------|--2------------|
-----4-------------|--2---------------|--2---------------|--1------------|
--2----------------|--4---------------|--4---------------|--2------------|
-------------------|------------------|------------------|---------------|
-------------------|------------------|------------------|--2------------|


---------||
---------||
---------||
---------||
---------||
---------||

-------------------

Backing guitar:

Capo 1

E||-------|-------|-------|-------|-------|-------|-------|-------|
B||-------|-------|-------|-------|-------|-------|-------|-------|
G||-------|-------|-------|-------|-------|-------|-------|-------|
D||-------|-------|-------|-------|-------|-------|-------|-------|
A||-------|-------|-------|-------|-------|-------|-------|-------|
E||-------|-------|-------|-------|-------|-------|-------|-------|


  Q    Q    Q       Q    E  E  Q       Q    E  E  E  E     E  E  E  E  E   E   
-----------------|------------------|-------------------|--------------7--10--|
-----------------|------------------|-------------------|--------6--9---------|
-----------------|--2----------2----|-------------------|--4--7---------------|
------------2----|----------2-------|-------------2--5--|---------------------|
-------3---------|-------3----------|-------2--5--------|---------------------|
--1--------------|------------------|--3----------------|---------------------|


  E  E  E  E  E  E     E  E  E  E  E  E     E  E  E  E  E  E   
--------------------|--------------------|--------------------|
--------------------|--------------------|--------0-----0-----|
--------2-----2-----|--------2-----2-----|-----------0--------|
-----2-----3-----2--|-----2-----3-----2--|-----0-----------2--|
--------------------|--------------------|--------------------|
--1-----------------|--1-----------------|--3-----------------|


  E  E  E  E  E  E     E  E  E  E  E  E     E  E  E  E  E  E     H.            
--------------------|--------------------|--------------------|---------------|
--------0-----0-----|--------------------|--------------------|---------------|
-----------0--------|--------2-----2-----|--------2-----2-----|--2------------|
-----0-----------2--|-----2-----3-----2--|-----2-----3-----2--|---------------|
--------------------|--0-----------------|--0-----------------|---------------|
--3-----------------|--------------------|--------------------|---------------|


-------||
-------||
-------||
-------||
-------||
-------||


I was bit disappointed because Tenmon didn't do the soundtrack
for Kotonoha No Niwa, but Kashiwa Daisuke did amazing job with it.



Duration Legend
---------------
W - whole
H - half
Q - quarter
E - 8th
S - 16th
T - 32nd
X - 64th
. - note dotted
|-n-|  - n-tuplets


Tablature Legend
----------------
L - tied note
x - dead note
g - grace note
(n) - ghost note
> - accentuded note
NH - natural harmonic
AH - artificial harmonic
TH - tapped harmonic
SH - semi harmonic
PH - pitch harmonic
h - hammer on
p - pull off
b - bend
s - slide
/ -  slide into from below or out of upwards
\ -  slide into from above or out of downwards
~ - vibrato
W - wide vibrato
tr - trill
TP - tremolo picking
T - tapping
S - slap
P - pop
< - fade in
^ - brush up
v - brush down
Login or Register to remove this ad.