Ads

Fighting of the Spirit (Tales of Symphonia) Guitar Tab

Submitted: Jan 13, 2008 by Gloups (Last updated: Apr 17, 2008)

4.72222
Average: 4.7 (18 votes)
Download | Listen
Game: Tales of Symphonia
Composer(s): Motoi Sakuraba, Shinji Tamura
Style: Transcription

AutoScroll: Slow | Medium | Fast
                         > Fighting Of The Spirit <
                                   -From: Tales Of Symphonia-
tempo : 160

e|---------------------12----------------------
B|--13-12-----12-13-15----------12-13-15-13-12-
G|--------14---------------14------------------
D|---------------------------------------------
A|---------------------------------------------
E|---------------------------------------------


e|----------------------------------------
B|--------------12-13-15-13-12------------
G|-12-12-12--------------------14---------
D|------------------------------------14--
A|----------------------------------------
E|----------------------------------------


e|--------------------12-----------------
B|-13-12-----12-13-15------15-13-12------
G|-------14--------------------------14--
D|---------------------------------------
A|---------------------------------------
E|---------------------------------------


e|----------12---------------------------------
B|-12-13-15----15-13-12--13-12-----------------
G|-----------------------------14-------12-----
D|---------------------------------------------
A|---------------------------------------------
E|---------------------------------------------

                             H  PO (H=hammer;PO=pull off)  
e|---------------------------------------------------------
B|-13(bend:+1)-----13-12---13-15-13--12--------13(bend:+1)-
G|---------------------------------------14-12-------------
D|---------------------------------------------------------
A|---------------------------------------------------------
E|---------------------------------------------------------


e|-------13-12-----------------------------
B|-13-12-------15---13-12-13-12------------
G|--------------------------------14-12-14-
D|-----------------------------------------
A|-----------------------------------------
E|-----------------------------------------

 [~~~~~~~~~~~~x2~~~~~~~~~~~~]
e|--------------------------|---------15-15-13-12--------
B|--12-13-15-15-14-12-------|---12-13-------------15-12--
G|--------------------14-14-|----------------------------
D|--------------------------|----------------------------
A|--------------------------|----------------------------
E|--------------------------|----------------------------

e|-------12---------------------------------------
B|-13-15----15-13-12------12----12----------------
G|---------------------14----12----14-------------
D|------------------------------------------------
A|------------------------------------------------
E|------------------------------------------------

 [~~~~~~~~~~~~~~~~~~~~~~~~~~~~~~~~~~~~~~x2~~~~~~~~~~~~~~~~~~~~~~~~~~~~~~~~~~~~~]
e|-----------------------12----------------12----------------------------------|
B|---13-12------12-13-15--------12-13-15*-----15-13-12-13-12-------------12----|
G|---------14---------------14-------------------------------14-12----12----14-|
D|-----------------------------------------------------------------14----------|
A|-----------------------------------------------------------------------------|
E|-----------------------------------------------------------------------------|
                                      *=play this only the 2nd time.

                        A.                         B.
e|---------------------|--------------------------|---------------------|
B|---------------------|--------------------------|---------------------|
G|-9-------------------|--------------------------|---------------------|
D|---12-10-12-10-9-----|-10-10-9-10-9-12-10-9-10--|-9-9-7-9-7-10-9-7-9--|
A|-----------------12--|--------------------------|---------------------|
E|---------------------|--------------------------|---------------------|
                       Play: A A B A A A B A                 Back to the start !


An excellent training for solos ! :D  It's a bit tricky with the 
rhythm but don't worry, once you have memorized it it's a lot easier.
PS: There are two guitars together in "B" part, I wrote the first one 
but you can also play:
            |-12-12-10-12-10-14-12-10-12-|     on the 'D' string
Login or Register to remove this ad.

7 comments on Fighting of the Spirit

Nice.

4

Nice.

OMG! As a long time "Tales

5

OMG! As a long time "Tales of" player, I know exactly what the song sounds like so when I played this on guitar, I was blown away. Amazing Tab and your right, it is great practice for solos.

i like it very much but i

5

i like it very much but i play the refrain like

e--------------------------------
B-13-13-12-13-12-15-13-12-13-----
G--------------------------------
D--------------------------------
A--------------------------------
E--------------------------------

but im a guitar newbie and dont know if i was just too stupid to see it ^^

Oh man I love this

5

Oh man I love this song!
I've just started to learn guitar, and I can't wait to be able to play this!

Always loved the song, still

5

Always loved the song, still love the song, now can play the song :) Thanks this is Awesome with a capital A.

perfect ^_^

5

5 stars for you ^_^

The last part is perfect for improvisation, I just love it!

Awesome

5

I gonna try to put some bending into this song :]