Ads

Main Menu (Super Smash Bros. Melee) Guitar Tab

Submitted: Jun 14, 2008 by Zelos

5
Average: 5 (9 votes)
Download | Listen
Game: Super Smash Bros. Melee
Composer(s): Hirokazu Ando, Shogo Sakai, Tadashi Ikegami, Takuto Kitsuta
Style: Transcription
Series: Super Smash Bros.

AutoScroll: Slow | Medium | Fast
Main Menu    
~Super Smash Bros. Melee~
Composed by: Koji Kondo, Shogo Sakai
Arranged by: Zelos                                 


Guitar 
BPM = 154 
Difficulty: Easy - Medium


      S S  S  S  E  E  E   S S  E   S S     S S  E   H        E   S  S  
E||-------------14--L----------14--17---|--16---12---------------------|
B||--12------12-----------12------------|-----------12-----------12-14-|
G||-------11----------------------------|------------------------------|
D||-------------------------------------|------------------------------|
A||-------------------------------------|------------------------------|
E||-------------------------------------|------------------------------|


   Q.     E  E   S S  E   S S     H.           Q     
-------------------------14---|--12-----------------|
--15------L-----12---15-------|---------------------|
------------------------------|---------------------|
------------------------------|---------------------|
------------------------------|---------------------|
------------------------------|---------------------|


   S S  S  S  E  E  E   S S  E   S S     S S  E   H        E   S  S  
-------------14--L----------14--17---|--16---12---------------------|
--12------12-----------12------------|-----------12-----------12-14-|
-------11----------------------------|------------------------------|
-------------------------------------|------------------------------|
-------------------------------------|------------------------------|
-------------------------------------|------------------------------|


   W                   H.           Q       S S S S  E.  T E  T S S  S S  S S  
--------------------|--------------------|------------------------------------|
--15----------------|--L-----------------|-------------------------------10---|
--------------------|--------------------|----------11---L----------11--------|
--------------------|--------------------|--9-----9-------------9-------------|
--------------------|--------------------|------9-----------------------------|
--------------------|--------------------|------------------------------------|


  S S S S Q.     S. E  T S  S     Q.     S. E  T S S S S S S  
------------------------------|------------------------------|
--9---------------------------|--------------------------7---|
------9-----------------------|----------------------7-------|
----------9------L-------9-11-|--12------L-------9-----------|
------------------------------|------------------------------|
------------------------------|------------------------------|


  H.           E.  T T    S S S S  E.  T E  T S S  S S  S S  
-----------------------|------------------------------------|
-----------------------|-------------------------------10---|
--9------------L---L---|----------11---L----------11--------|
-----------------------|--9-----9-------------9-------------|
-----------------------|------9-----------------------------|
-----------------------|------------------------------------|


  S S S S Q.     S. E  T S  S     H         H            H         H         
------------------------------|----------------------|------------14--------|
--9---------------------------|----------------------|--12------------------|
------9-----------------------|------------12--------|----------------------|
----------9------L-------9-11-|--12------------------|----------------------|
------------------------------|----------------------|----------------------|
------------------------------|----------------------|----------------------|


   S S  S  S  Q    S. T  E   E   E      E  E   Q.     S. T  E.  T T  
-------------15----L----14--12------|-------------------------------|
--15---12-15--------------------15--|--15-----14------L-------------|
------------------------------------|----------------------14---L---|
------------------------------------|-------------------------------|
------------------------------------|-------------------------------|
------------------------------------|-------------------------------|


   Q.      S S  E  S  E.   E      H.           E.  T T  
---------------15----14-------|--17------------L---L---|
--12------15--------------17--|------------------------|
------------------------------|------------------------|
------------------------------|------------------------|
------------------------------|------------------------|
------------------------------|------------------------|


  S S S  S Q    S S E  E  E     S S S S Q.     S S E.  T T  
-----------6----L---5--------|-----------------------------|
-----------------------8--6--|--6---5---5------L-----------|
------7-10-------------------|---------------------5---L---|
--8--------------------------|-----------------------------|
-----------------------------|-----------------------------|
-----------------------------|-----------------------------|


  Q.     S. T E  T T E  T T E     W                 
----------------------------5--|-------------------|
--6------L----6--L---8--L------|--8----------------|
-------------------------------|-------------------|
-------------------------------|-------------------|
-------------------------------|-------------------|
-------------------------------|-------------------|


   S S  S  S  Q    S S  S S  S S  S S     S.T  S S  Q.     T S.  Q     
-------------15----L---14---12--------|-------------------------------|
--12------12---------------------15---|--15---14---14------L----------|
-------12-----------------------------|-------------------------14----|
--------------------------------------|-------------------------------|
--------------------------------------|-------------------------------|
--------------------------------------|-------------------------------|


   S S  S  S  Q    S S  S S  S S  S S  
-------------15----L---14---12--------|
--12------12---------------------15---|
-------12-----------------------------|
--------------------------------------|
--------------------------------------|
--------------------------------------|


          |--3--|  |--3--|  |--3--|  |--3--|        
   S E.   S  S  S  S  S  S  S  S  S  S  S  S  Q     
--12-----17-19-17-19-17-19-17-19-17-19-17-19-17----|
---------------------------------------------------|
---------------------------------------------------|
---------------------------------------------------|
---------------------------------------------------|
---------------------------------------------------|


  S S S S  Q    T S. S S S S S S    S E.  Q.     S. T E.  T T  
----------10----L----8---6---5---|--3-----1------L------------|
--8-----8------------------------|--------------------1---L---|
------7--------------------------|----------------------------|
---------------------------------|----------------------------|
---------------------------------|----------------------------|
---------------------------------|----------------------------|


  H        E.  E.  E     W                  
----------------------|-------------------||
--3--------3---2---3--|--5----------------||
----------------------|-------------------||
----------------------|-------------------||
----------------------|-------------------||
----------------------|-------------------||




Duration Legend
---------------
W - whole
H - half
Q - quarter
E - 8th
S - 16th
T - 32nd
. - note dotted
|-n-|  - n-tuplets


Tablature Legend
----------------
L - tied note
Login or Register to remove this ad.

5 comments on Main Menu

this is more easythan I

5

this is more easythan I think thanks

Sounds brilliant, not too

5

Sounds brilliant, not too hard to play, and glad I found this tab, been looking everywhere for one. ^_~

Great like always, easy too.

5

Great like always, easy too.

awesome tab!

simple and easy!

Amazing!

5

Great job! Brings back some good memories! Keep up the good work! :D