Level 1-1 (Super Mario Land) Guitar Tab

Submitted: Dec 28, 2007 by jakey (Last updated: Dec 28, 2007)

3
Average: 3 (6 votes)
Download | Listen
Game: Super Mario Land
Composer(s): Hirokazu Tanaka
Style: Transcription
Series: Mario

This song is also called Birabuto

AutoScroll: Slow | Medium | Fast
Super Mario Land
World 1-1
Tabbed by Jake Mackenzie

This is the tab from the first level of Super Mario Land on the GameBoy.


e--0---------0--------0--0--------0--1--3--5------------------------------------0
B-----3--1-----1--3--------3--1-----------------1--1--------1--1--1-----0--2-----
G-------------------------------------------------------2--0------------3--------
D--------------------------------------------------------------------------------
A--------------------------------------------------------------------------------
E--------------------------------------------------------------------------------

e--0--------0-------0--0--------0----5-------------------0------1--0-----(1/12/1)
B-----3--1----1--3-------3--1-----1----5--3----1--1--3----1--1------1--3---------
G--------------------------------------------------------------------------------
D--------------------------------------------------------------------------------
A--------------------------------------------------------------------------------
E--------------------------------------------------------------------------------

e--5--7--8--7--3--1--3/1--0--1--3--5----5--7--8--7--3--3--11--10--8--(15--15--15)
B--------------------------------------------------------------------------------
G--------------------------------------------------------------------------------
D--------------------------------------------------------------------------------
A--------------------------------------------------------------------------------
E--------------------------------------------------------------------------------

The tabs in brackets are optional. i only put them in because 
i think it makes it sound good.
The slide in the brackets on the second line is just a random 
slide up and down the first string.
Login or Register to remove this ad.

9 comments on Level 1-1

Belt leather belt o dud 4

Belt leather belt o dud 4 str 4 stam AHHH!

WOO! BELT, LEATHER BELT!

WOO!

BELT, LEATHER BELT!

who here can translate? i

who here can translate? i dont speak belt leather belt language.

and also, i just realsied its in more levels than world 1.

http://www.youtube.com/watch?

also, the original XD

also, the original XD

ohh... its makes no sense,

ohh... its makes no sense, but i am remotley amused.

teeheeheeheehee...

very nice

very nice

Really Good

I really like this tab. Brings me right back to those long car trips. The only part I'm not sure about is the end of the first line. It just kinda sounds like random notes picked. I wish I could help with it but I'm not much for tabbing just playing other.