Violet City (Pokémon Gold & Silver) Bass/Guitar Tab

Submitted: May 10, 2008 by PlasticDragon (Last updated: Apr 05, 2010)

5
Average: 5 (6 votes)
Download | Listen
Game: Pokémon Gold & Silver
Composer(s): Junichi Masuda, Go Ichinose
Style: 2 or more instruments, Transcription
Series: Pokemon

AutoScroll: Slow | Medium | Fast
Game: Pokemon Gold & Silver
Title: Violet City
Composer: Junichi Masuda
Year: 2000

Arranged by Dan Hill

Note:  This was a difficult song to replicate, and I have listened to it
so many times within the past few hours that it makes me sick.  I believe
it's as accurate as possible given fret limitations, but it's also a bit
tricky to play in some parts.  With some practice, it shouldn't be as hard 
as it seems, though.



Guitar 1 
     
     S S S S E  Q    E  E  E     S S S S S S Q    E  E  E   
E||----------4--6----4--2-----|----------2--------4--------|
B||--------4---------------2--|--------2-----4-------4-----|
G||----1-4--------------------|------3------------------1--|
D||--2------------------------|--1-4-----------------------|
A||---------------------------|----------------------------|
E||---------------------------|----------------------------|


  S S S S S S Q    S S S S S S    Q    E  Q    Q.          E  S S E  S S S S S S S S S S  
---------------------------4-7-|----------------------||-------------------------4---7---|
---------------------5---5-----|----------------------||----------4--4-5-4---7-----------|
-------------------6---6-------|--4-------6-----------||*-----4-6------------------------|
------6-9-6---9----------------|----------------------||*--------------------------------|
--4-7--------------------------|----------------------||---------------------------------|
-------------------------------|----------------------||---------------------------------|


  S S S S S S S S S S S S Q       E  S S E  S S S S S S S S S S  
--9-----9-8-----8-7---7---6----|---------6--6-9-6---------------|
----9-------9------------------|-------5------------7---5-------|
------9-------9----------------|-----6----------------------6---|
-------------------------------|--------------------------------|
-------------------------------|--------------------------------|
-------------------------------|--------------------------------|


  Q    Q    S S S S S S E     S S S S E  S S S S S S E  S S    H         E.   T  T  Q     
---------------------------|----------7------6---6----------|-----------13---------11----|
--4----5----6---6---7---8--|--9----------9-9---------4--7---|-------------------12-------|
---------------------------|----8---8-----------------------|----------------13----------|
---------------------------|------9-------------------------|----------------------------|
---------------------------|--------------------------------|----------------------------|
---------------------------|--------------------------------|----------------------------|


                                                                      |-3-|         
  W                   S S S S S S S S Q    Q       E  S  S  E   E  E  S S S E  S S  
-------------------|----------------------------|--------------10--9--7-9-7-5------|
-------------------|--5-----5-------5-4---------|-----8-10-12------------------7---|
-------------------|----4-----4---4-------------|----------------------------------|
-------------------|------6-----6---------------|----------------------------------|
-------------------|----------------------------|----------------------------------|
-------------------|----------------------------|----------------------------------|


                                                     |--3--|          
  E  S S E  Q    Q     E      S S  S  S  E   E   E   S  S  S E   S S  
--------------------------|-----------------14--12--10-12-10-9-------|
--7------7----------------|--12---12-14-15----------------------12---|
-----6------7----9----11--|------------------------------------------|
--------------------------|------------------------------------------|
--------------------------|------------------------------------------|
--------------------------|------------------------------------------|


   E   S S  E   Q     Q    E      S  S  S  S  S S  S  S  H         
---------------12----10----9--|--16-12----12-16---16-18-19--------|
--10-------10-----------------|--------12-------------------------|
------11----------------------|-----------------------------------|
------------------------------|-----------------------------------|
------------------------------|-----------------------------------|
------------------------------|-----------------------------------|


   S  S  S  S  S S  S  S  H            S  S  S  S  S  S  S  S  S  S  S  S  S  S  S  S  
--16-13----13-16---16-18-19--------|-----------------------------------------14-18-14-|
--------12-------------------------|--14-------14-------14----------------14----------|
-----------------------------------|-----16-------16-------16----------15-------------|
-----------------------------------|--------16-------16-------16----16----------------|
-----------------------------------|-----------------------------16-------------------|
-----------------------------------|--------------------------------------------------|


   Q    E   S  S  Q    Q       
-----------------------------||
-----------------14----------||
--15-------16-17------------*||
----------------------------*||
-----------------------------||
-----------------------------||







Guitar 2
     
     E  E  E   Q    E   E  E      E  E   E  Q    E  E  E     E  E  E  Q    E  E  E   
E||--4--6--7--11----9---------|-------------9----7--6--7--|--4--6--7--4----6--7--9--|
B||--------------------11--9--|------9--11----------------|-------------------------|
G||---------------------------|--11-----------------------|-------------------------|
D||---------------------------|---------------------------|-------------------------|
A||---------------------------|---------------------------|-------------------------|
E||---------------------------|---------------------------|-------------------------|


   E   E   E  Q.     E   S  S       Q    E   S  S  E   E   E   E   
--11------11--9---------11-12-||---14-------14-16-14--12--11--14--|
------------------------------||----------------------------------|
------11----------------------||*---------------------------------|
------------------------------||*---------------------------------|
------------------------------||----------------------------------|
------------------------------||----------------------------------|


   H.           E   S  S     Q    E   S  S  S S  S S S S  S S     H.           E   S S  
--12------------------11-|--12-------12-14-12---11---9---12---|--11------------------9-|
-------------------14----|------------------------------------|-------------------12---|
-------------------------|------------------------------------|------------------------|
-------------------------|------------------------------------|------------------------|
-------------------------|------------------------------------|------------------------|
-------------------------|------------------------------------|------------------------|


   Q    E   S  S  S S S S E  S S     Q     Q     Q    E   S  S  
--11-------11-12-11---9---7--9---|--11----16----19-------------|
---------------------------------|--------------------------16-|
---------------------------------|-----------------------18----|
---------------------------------|-----------------------------|
---------------------------------|-----------------------------|
---------------------------------|-----------------------------|


   E   E   E   E   S  S  S  S  S  S  S  S     H.           Q     
------------------------------------------|---------------------|
--17----------17--16-------16-14-------14-|--12-----------------|
----------16------------16----------15----|---------------------|
------18-------------16----------14-------|---------------------|
------------------------------------------|---------------------|
------------------------------------------|---------------------|


                       |--3--|                                        
  E   S S  E   E   E   S  S  S E  S S     E   S S  E   Q     Q    E   
--------9-10--14--12--10-12-10-9--7---|---------------12----10----9--|
-----12-------------------------------|--10-------10-----------------|
--------------------------------------|------11----------------------|
--------------------------------------|------------------------------|
--------------------------------------|------------------------------|
--------------------------------------|------------------------------|


                    |-3-|                                           
  E  S  S E   E  E  S S S E  S S     E   S S  E   Q     Q     S  S  
----------7--10--9--7-9-7-5------|--14-------14--12----14----10-12-|
-----8-10--------------------8---|------14-------------------------|
---------------------------------|---------------------------------|
---------------------------------|---------------------------------|
---------------------------------|---------------------------------|
---------------------------------|---------------------------------|


   H.           E   S  S     H.           E   S  S    H.           Q     
--14---------------10-12-|--14---------------------|--9-----------------|
-------------------------|-------------------11-12-|--------------------|
-------------------------|-------------------------|--------------------|
-------------------------|-------------------------|--------------------|
-------------------------|-------------------------|--------------------|
-------------------------|-------------------------|--------------------|


   Q.      S  S  Q    E   S  S    
--18------17-16-14--------------||
-------------------------16-17--||
-------------------------------*||
-------------------------------*||
--------------------------------||
--------------------------------||







Bass
     
     Q.     H        E     Q.     H        E     Q.     H        E   
G||---------9--------L--|---------------------|---------------------|
D||---------------------|---------6--------L--|---------------------|
A||---------------------|---------------------|---------8--------L--|
E||---------------------|---------------------|---------------------|


  Q    S S Q    S S E  E       S Q    S S S E  S S E  S S    S Q    S S S E  S S E  S S  
-----------3----1-0-------||------------------------------|----------------------1------|
--------------------4-----||*----------------------4------|-----------------------------|
-------4---------------1--||*--2--------2-2----2----------|--4--------4-4----4----------|
--2-----------------------||--------------------------2---|-------------------------4---|


  S Q    S S S S S S S E  S S    S Q    S S S E  S S Q       S Q    S S S S S S S Q     
------------------------------|----------------------4----|--1--------1-1-0---0--------|
-----------------------4------|---------------------------|-----------------------4----|
--------------------------4---|--2--------2-2----2--------|----------------------------|
--2--------2-2-2---2----------|---------------------------|----------------------------|


  S Q    S S S E  S S Q       S Q    S S S S S S S E  E     S Q    S S S E  S S Q     
----------------------6----|-----------------------------|---------------------------|
--3--------3-3----3--------|--2--------2-2-4---4---------|---------------------------|
---------------------------|-----------------------4--3--|--2--------2-2----2---0----|
---------------------------|-----------------------------|---------------------------|


  S Q    S S S S S S S E  E     S Q    S S S S S Q    S S    S Q    S S S S S S S E  E   
-----------------------------|----------------------------|-----------------------------|
-----------------------2-----|----------------------------|-----------------------2-----|
---------------0---0------0--|-----------2-2-2---1----0---|---------------0---0------0--|
--3--------3-3---------------|--2-------------------------|--3--------3-3---------------|


  S Q    S S S S S Q    S S    S Q    S S S E  S S E  S S    S Q    S S S E  S S E  S S  
----------------------------|----------------------4--1---|----------------------6--3---|
----------------------------|--2--------2-2----2--------4-|--3--------3-3----3--------6-|
-----------2-2-2---1----0---|-----------------------------|-----------------------------|
--2-------------------------|-----------------------------|-----------------------------|


  S Q    S S S S S S S E  S S    Q.     S S Q    E  E     
------------------------------|---------1-2-3-----------||
--4--------4-4---------4------|--4---------------------*||
------------------------------|---------------------1--*||
---------------2---2------2-4-|-------------------------||
Login or Register to remove this ad.

2 comments on Violet City

this sounds great man i would

5

this sounds great man i would so like to be able to play this song cause it reminds me of those days back when i played silver

nd sorry to hear you feel sick from listening to it so much keep it up :}

It sounds very good! You

5

It sounds very good! You captured it perfectly! Damn, it must have been though, to listen to it infinite times.
Congratulations for your effort, they weren't in vain!

Thank you for sharing it with us!